música
Buscador

Acorde de God Put A Smile Upon Your Face - Coldplay

Letra de God Put A Smile Upon Your Face



Db E Eb D

e|---1---1-----4---4-----3---3-----3-----2--|

B|---2---2-----5---5-----4---4-----4-----3--|

G|---1---1-----4---4-----3---3-----3-----2--|

D|-0---0---0-3---3---0-2---2---0-2---0-1---0|

A|------------------------------------------|

E|------------------------------------------|



Db E Eb D

Where do we go, nobody knows

i've got to say i'm on my way down

god gave me style and gave me grace

God put a smile upon my face



Db E Eb D Db (2x)



e|------------------------------|

B|--1412-9/12--129-5/8-----7-|

G|------------------------------|

D|------------------------------| X2

A|------------------------------|

E|------------------------------|





Db E Eb D

where do we go to draw the line

i've got to say, i've wasted all your time, oh honey honey

where do i go to fall from grace

god put a smile upon your face, aww yeah





A E F#m A

ahh when you work it out i'm worse than you

E F#m A

yeah when we work it out, i wanted to

E F#m A

now when we work out where to draw the line

your guess is as good as mine...





e|------------------------------|

B|--1412-9/12--129-5/8-----7-|

G|------------------------------|

D|------------------------------| X2

A|------------------------------|

E|------------------------------|





Db E Eb D Db (2x)



Db E Eb D

where do we go, nobody knows

don't ever say you're on your way down, when



Tocar várias vezes dentro de ()

http://www.coveralia.com/acordes/god-put-a-smile-upon-your-face-coldplay.php

e|------------------------------|

B|--(2)-2-4-5-4-2---------------|

G|------------------------------|

D|------------------------------| X2

A|------------------------------|

E|------------------------------|

god gave you style and gave you grace

and put a smile upon your face







A E F#m A

ahh when you work it out i'm worse than you

E F#m A

yeah when we work it out, i wanted to

E F#m A

now when we work out where to draw the line

E

your guess is as good as mine...





Db E Eb D

it's as good as mine,

it's as good as mine,



começa esse solo

e|------------------------------|

B|--(2)-2-4-5-4-2---------------|

G|------------------------------|

D|------------------------------|

A|------------------------------|

E|------------------------------|

it's as good as mine,

no, no no, no no,

no, no no, no no,

A E

it's as good as mine,

F#m A

It's as good as mine,

(as good as mine)

as good as mine,

(as good as mine)

as good as mine,

(as good as mine)



---termina o solo



Db E Eb D

where do we go, nobody knows

don't ever say you're on your way down, when

god gave you style and gave you grace

and put a smile upon your face





Letra subida por: Anónimo

El acorde de God Put A Smile Upon Your Face de Coldplay es una versión de la canción original realizada por colaboradores/usuarios de Coveralia.

¿Has encontrado algún error en esta página? Envíanos tu corrección del acorde