música
Buscador

Acorde de God Bless America - And All The Beautiful Women In It - Lana Del Rey

Letra de God Bless America - And All The Beautiful Women In It

[Intro]

A Bm C#m Bm A F#m D E A

e|-------------------------------------------------|

B|2----2--3-/5~----5--3--2---------------5----2----|

G|2----2--4-/6~----6--4--2--2------2-----4----2----|

D|2-------------------------4------4-----2----2----|

A|0--------------------------------5----------0----|

E|-------------------------------------------------|





[Verse 1]

A E

Take me as I am

Bm

Take me, baby, in stride

E

Only you can save me tonight

A E

There's nowhere to run

B

Nowhere to hide

E

You let me in, don't leave me out



Or leave me dry





[Pre-Chorus 1]

F#m Faug A B7

e|----------------|----------------|----------------|----------------|

B|------9-9b10r9--|9---------------|------9-9b10r9--|----------------|

G|---11-----------|----------------|---11-----------|8---------------|

D|----------------|----------------|----------------|----------------|

A|----------------|----------------|----------------|----------------|

E|----------------|----------------|----------------|----------------|



F#m Faug

Even when I'm alone



I'm not lonely

A B7

I hear the sweetest melodies (sweetest melodies)

F#m Faug

On the fire escapes of the city

A B7

Sounds like I am free



It's got me singing





[Chorus]

A E Bm D E

God bless America, and all the beautiful women in it

A E Bm D E

God bless America, and all the beautiful women in it

A E

May you stand proud and strong

Bm E

Like Lady Liberty shining all night long

A E Bm D E

God bless America





[Verse 2]

A E

Take me as I am

Bm

Don't see me for what I'm not

E A

Only you can hear me tonight

http://www.coveralia.com/acordes/god-bless-america---and-all-the-beautiful-women-in-it-lana-del-rey.php

E

Keep your light on, babe

Bm

I might be standing outside

E

You let me in, don't leave me out



Or leave me dry





[Pre-Chorus 2]

F#m Faug

Even walking alone, I'm not worried

A B7 F#m

I feel your arms all around me (arms around me)

Faug

In the air on the streets of the city

A B7

Feels like I am free



It's got me thinking





[Chorus]

A E Bm D E

God bless America, and all the beautiful women in it

A E Bm D E

God bless America, and all the beautiful women in it

A E

May you stand proud and strong

Bm E

Like Lady Liberty shining all night long

A E Bm D E

God bless America

F#m

(sweetest melodies)





[Bridge]

F#m

Even with you I've got [?]

Faug A

So you'd better believe that nobody can make me feel lonely

B7

Because I hear (sweetest melodies)

F#m Faug

Even when you talk that talk with [?]

A

I'll never feel, never feel lonely

B7

I have no fear



It's got me thinking (Yeah)





[Chorus]

A E Bm D E

God bless America, and all the beautiful women in it

A E Bm D E

God bless America, and all the beautiful people in it

A E

May they stand proud and strong

Bm E

Like Lady Liberty shining all night long

A E Bm D E A E Bm

God bless America, and all the beautiful people in it

D E

And all the beautiful people in it

Discos en los que aparece este acorde: Lust For Life

El acorde de God Bless America - And All The Beautiful Women In It de Lana Del Rey es una versión de la canción original realizada por colaboradores/usuarios de Coveralia.

¿Has encontrado algún error en esta página? Envíanos tu corrección del acorde