música
Buscador

Acorde de Glory Box - Portishead

Letra de Glory Box

 Intro 





D# C# C B

E|-----------------------------

B|-----------------------------

G|-----------------------------

D|-----------------------------

A|-6-----6/4-----4/3-----3/2

E|------------------------------





Chorus

D# C# C B

E|-----------------------------------------

A|-----------------------------------------

G|--------8---------6--------5--------4--

D|-----8---------6--------4--------4----

A|--6---------4---------3---------2------

E|-----------------------------------------









(D# C# C B)

I'm so tired of playing

Playing with this bow and arrow

Gonna give my heart away

Leave it to the other girls to play.

For I've been a tempteress too long







Chorus:

D#

Oh yeah

C# C B D#

http://www.coveralia.com/acordes/glory-box-portishead.php

Give me a reason to love you

C# C B D# C#

Give me a reason to be....................a woman



(C B) D#

I just want to be a woman





(D# C# C B)

From this time unchained

We're all looking at a different picture

Through this new frame of mind

A thousand flowers could bloom

Move over and give us some room



Chorus



(D# C# C B)

So don't you stop being a man

Just take a little look from outside when you can

Sow a little tenderness

No matter if you cry



Chorus





(D# C# C B)

{Its all I want to be a woman}

So I just want to be a woman

For this is the beginning of forever and ever

Its time to move over now

(So I want to be)



{Back to start again and fades}





Letra subida por: Anónimo

Discos en los que aparece este acorde: Dummy , Roseland Nyc Live ,

El acorde de Glory Box de Portishead es una versión de la canción original realizada por colaboradores/usuarios de Coveralia.

¿Has encontrado algún error en esta página? Envíanos tu corrección del acorde