música
Buscador

Acorde de Glorious Day - Weezer

Letra de Glorious Day

 Guitar 1 Intro 

e------------------------------------------------------

B-2-3-5-2--------2------2-3-5-2--------2h3p2-----------

G----------4-2-4-----2-----------4-2-4-----------------

D------------------------------------------------------

A------------------------------------------------------

E------------------------------------------------------



e------------------------------------------------------

B-2-3-5-2-------2---------2-2-2-2-2-2-2-2--------------

G---------4-2-4----4-2-4-------------------------------

D------------------------------------------------------

A------------------------------------------------------

E------------------------------------------------------



Guitar 2 Intro



e-|------------3X---------------------|-4X--|-4X--|-8X--|

B-|-----------------------------------|-----|-----|-----|

G-|.--2---2---2---2---4---4---4---4--.|--2--|--4--|--6--|

D-|.---------------------------------.|--2--|--4--|--6--|

A-|-0---0---0---0---2---2---2---2-----|--0--|--2--|--4--|

E-|-----------------------------------|-----|-----|-----|

F#5

Gonna make my move

A5

Gonna make it stay

E5

Gonna make it last

B5

Nevermind the past

A5

Living for today



A5 Ab5

Hey, hey

A5 (Muted F#5) Ab5

You know what you want me to say

A5

Right, right

Ab5

Fight, fight

F#5

We can start a glorious day



(Same Chords)

Gonna take my chance

Gonna rock and dance

Gonna hit the ground

With a brand new sound

Looking for romance



Hey, hey

You know what you want me to say

Right, right

http://www.coveralia.com/acordes/glorious-day-weezer.php

Fight, fight

We can start a glorious day



Chorus (Guitar 1 plays intro riff over chorus chord progression)

A5 C#5 A5

Glorious children on my mind

A5 C#5 A5

Glorious wastings of my time

A5 C#5

Glorious plans we make up

Ab5 (slight PM) C#5 (slightly less PM)

Forcing things in line



Solo: (chord progression under solo=F#5, A5, E5, B5, A5)

e------------------------------------------------------

B------------------------------------------------------

G-11-11-9-----------11-11-9----------------------------

D----------11-9~~-----------11-7~~--7777-99999999999-7~

A------------------------------------------------------

E------------------------------------------------------



Hey, hey

You know what you want me to say

Right, right

Fight, fight

We can start a glorious day



Glorious children on my mind

Glorious wastings of my time

Glorious plans we make up

Forcing things in line



F#5

Gonna rock it out

A5

Gonna scream and shout



E5

Gonna do it right

B5

Standing in the light

A5

Perchin' on the clouds



Gonna do it right

Standing in the light

Perchin' on the clouds



Gonna do it right

Standing in the light

Perchin' on the clouds



A5 (let ring)

Hey

Letra subida por: Anónimo

Discos en los que aparece este acorde: Green Album , Green Album (Uk Edition) , Green Album (Japan Edition)

El acorde de Glorious Day de Weezer es una versión de la canción original realizada por colaboradores/usuarios de Coveralia.

¿Has encontrado algún error en esta página? Envíanos tu corrección del acorde