música
Buscador

Acorde de Girls, Girls, Girls - Motley Crue

Letra de Girls, Girls, Girls

-------------------|------------------------- 

-------------------|----2------------3---------

-------------------|----3------------2---------

-3-/-6-3-----------|---------------------------

-3-/-6-3---3/2-----|--------x----0------------------

---------0-3/2-0-0-|-0------x----0--------------------





http://www.coveralia.com/acordes/girls--girls--girls-motley-crue.php



---------------------|----------------------------

---------------------|----------------------------

---------------------|----------------------------

-3/5-3-------------0-|---0------0-----------------------

-3/5-3----3/2------0-|---0------0---------------------------

-------0--3/2---0--0-|---0--3-4-0--0-34------------------------

Letra subida por: Anónimo

El acorde de Girls, Girls, Girls de Motley Crue es una versión de la canción original realizada por colaboradores/usuarios de Coveralia.

¿Has encontrado algún error en esta página? Envíanos tu corrección del acorde