música
Buscador

Acorde de Girl Harbor - Manchester Orchestra

Letra de Girl Harbor

 Chords  

e|--------------------------------|

B|--------------------------------|

G|--------------------------------|

D|---1-----5-----6-----8-----10---|

A|---1-----5-----6-----8-----10---|

D|---1-----5-----6-----8-----10---|

D# G G# A# C



INTRO – Guitar 1

D# G#



INTRO – Guitar 2

e|-------------------------------------------------|

B|---8---6---4---3---1------1---3---1--------------|

G|--------------------------------------3----------|

D|-------------------------------------------------|

A|-------------------------------------------------|

D|-------------------------------------------------|





D# G#

Cause you always talk so loud,



And you never notice,



D# G#

I don't mind the sound but you've,



C A#

rearranged the pieces of your life,



G# D#

So many times you burned out the parts.



A# G#

I don't wanna believe,



A# G# D#

But I wanna believe you,





**RIFF 1**

e|-------------------------------------------------|

B|-------------------------------------------------|

G|-------------------------------------------------|

D|---3---5---5/6---5---3---------------------------|

A|-------------------------------------------------|

D|-------------------------------------------------|







A# G#

I don't mean what I say,



A# G# D#

But I say what I mean to





D# G# (x2)





D# G#

So now your last name is mine,



And I feel no different,



D# G#

I made a match that's trying to prove,



C A#

Trying to find a way I can explain,



G# D#

There was nothing else to possibly say.





A# G#

I don't wanna believe,



A# G# D#

But I wanna believe you,





**RIFF 1**



A# G#

I don't mean what I say,



A# G#

But I say what I mean to

http://www.coveralia.com/acordes/girl-harbor-manchester-orchestra.php





D# G#

You waste so much time,



D# G#

You waste so much time,





D# G#

On desperate friends,



D# G#

Trying to reconcile their names,



D# G G# A#

There is a name for men like you inside the dark,



D# G#

And I know your faults,



D# G#

I know the way you write them off,



D# G G# A#

I don't want anything to do with it no more.





D# G#

I bet most the time,



You're too insecure to admit it,



D# G#

You're the last in line to move,



C A#

Now I'm running out of things that I can say,



G# D#

Cause nothing that I say is really helping anyway.





A# G#

I don't wanna believe,



A# G# D#

But I wanna believe you,





**RIFF 1**





A# G#

I don't mean what I say,



A# G# D#

But I say what I mean to





A# G#

I don't wanna believe,



A# G# D#

But I wanna believe you,





**RIFF 1**



A# G#

I don't mean what I say,



A# G# D#

But I say what I mean to





D# G#

You waste so much time,



D# G#

You waste so much time,



D# G#

You waste so much time,



D# G#

YOU WASTE SO MUCH TIME





*** END ON G# ***

Letra subida por: Anónimo

Discos en los que aparece este acorde: Cope , Cope (Deluxe Edition) , Hope

El acorde de Girl Harbor de Manchester Orchestra es una versión de la canción original realizada por colaboradores/usuarios de Coveralia.

¿Has encontrado algún error en esta página? Envíanos tu corrección del acorde