música
Buscador

Acorde de Gimme! Gimme! Gimme! (A Man After Midnight) - Abba

Letra de Gimme! Gimme! Gimme! (A Man After Midnight)

{Intro}: 



Dm Bb6 C9 Dm

e|-----------------------------------------------------------------------|

B|----------3---------------3----------------3----------------3----------|

G|------2-------2-------3-------3--------0-------0--------2-------2------|

D|--0-------------------------------------------------0------------------| 4x

A|-------------------1---------------3-----------------------------------|

E|-----------------------------------------------------------------------|



Dm E F

e|------------10--10-----------------------10--10-------------------------|

B|---------10--------10-----------------10--------10----------------10~---|

G|*-----10--------------10-----------10--------------10-----9-10-12-------|

D|*--12--------------------12~----12---------------------12---------------|

A|------------------------------------------------------------------------|

E|------------------------------------------------------------------------|



G Am Dm

e|-----------13--13/12--------------------12--10-------------------------|

B|--------13-----------13--------------13--------10----------------------|

G|-----14-----------------14~-------14--------------10------------------*|

D|--15---------------------------14--------------------12~--------------*|

A|-----------------------------------------------------------------------|

E|-----------------------------------------------------------------------|





{Verse}:



Dm C Am Dm F G F G F G C Dm

e|-------------------------------------------------------------|

B|-------------------------------------------------------------|

G|-------------------------------------------------------------|

D|--7----5---------7------------------------5/7----------------|

A|--5----3----7----5-----3/5---3/5---3/5----3/5----------------|

E|------------5----------1/3---1/3---1/3-----------------------|





{Pre-Chorus}:



Bb6 Gm6

e|-------------------------------------------------------------|

B|-------------------------------------------------------------|

G|-------------------------------------------------------------|

D|------------------5-----------------------------5------------|

A|--8--------7--8-------8---7-----5--------7--8-------8---7----|

E|--6-----------------------------3----------------------------|



Dm/A A

e|-------------------------------------------------------------|

B|-------------------------------------------------------------|

G|-------------------------------------------------------------|

D|-------------------------------------------------------------|

A|---8-----7-----5-----0-----------7-----5-----4------0--------|

E|-------------------------------------------------------------|

|--------4x----------| |--------4x----------|











http://www.coveralia.com/acordes/gimme--gimme--gimme---a-man-after-midnight--abba.php

Song:





Dm C Am Dm

Half past twelve

F G F G

And I'm watching the late show in my flat all alone

F G C Dm

How I hate to spend the evening on my own

Dm C Am Dm

Au - tumn winds

F G F G

Blowing outside my window as I look around the room

F G C Dm

And it makes me so depressed to see the gloom



Bb6

There's not a soul out there,

Gm6 Dm/A A

no one to hear my pray - er



Dm Bb6 C9 Dm

Gimme gimme gimme a man after midnight

Bb6 C9 Dm

Won't somebody help me chase the shadows away

Bb6 C9 Dm

Gimme gimme gimme a man after midnight

Bb6 C9 Dm

Take me through the darkness to the break of the day



Dm C Am Dm

Mo - vie stars

F G F G

Find the end of the rainbow with a fortune to win

F G C Dm

It's so different from the world I'm living in



Dm C Am Dm

Tired of T.V.

F G F G

I open the window and I gaze into the night

F G C Dm

But there's nothing there to see, no one in sight



Bb6

There's not a soul out there,

Gm6 Dm/A A

no one to hear my pray - er



Dm Bb6 C9 Dm

Gimme gimme gimme a man after midnight

Bb6 C9 Dm

Won't somebody help me chase the shadows away

Bb6 C9 Dm

Gimme gimme gimme a man after midnight

Bb6 C9 Dm

Take me through the darkness to the break of the day







Letra subida por: Anónimo

¿Has encontrado algún error en esta página? Envíanos tu corrección del acorde