música
Buscador

Acorde de Funeral - Mon Laferte

Letra de Funeral

[Intro]



e|-2----2-4-6/9----9---7--6h7p6--4-----6---6--------------------6---6-|

B|-----2----------6-------------------4--4-----4h6p4--3-4------6--4---|

G|----3----------6-------------------4------------------------4-------|

D|--------------------------------------------------------------------|

A|-----------------------------------------------------------4--------|

E|---2----------6-------------------4---------------------------------|

F# A#m G#m6 C#13



e|-----6------9-7-6-7-6-----6-----------------------------------|

B|-9p7----9p7-----------9-7---9-7-6-9-7-6---7-6-----6-7--6h7p6--|

G|----------------------------------------8-----8-6-------------|

D|--------------------------------------------------------------|

A|--------------------------------------------------------------|

E|--------------------------------------------------------------|

F# G#m7 A#m7 Am7





e|-9-8-7-------6-----6-|

B|-----------6---6-9---|

G|-------8-9-----------|

D|---------------------|

A|---------------------|

E|---------------------|

G#m7 C#aug7







[Verso 1]

F# G#m7 A#m7

Me levanto y te observo en la cama,

Am7 G#m7 C#13 G#m7

estás aún dormido

C#13

Y me tomo la pastilla y no recuerdo cuando fue

F# G#m7 A#m7 Bmaj7

la última vez que lo hicimos

F# G#m7 A#m7

Al principio fuimos una gran locura

Am7 G#m7 C#13

y ahora estamos tan aburridos

G#m7 C#13

Nada es para siempre, amor,

F# F#7

vamos a escuchar al corazón





[Estribillo]

Bmaj7 Bm

Mientras preparo el desayuno me siento

F# G#m7 A#m7

terriblemente sola

Am7 G#m7 C#13

De pronto siento ganas de morir,

F# F#7

quiero escaparme de ti

Bmaj7 Bm

http://www.coveralia.com/acordes/funeral-mon-laferte.php

Quisiera estar en el mar, que me lleven las olas,

F# G#m7 A#m7 Am

quiero dejar de respirar

G#m7 C#13 F# F#maj7

No me despiertes, quiero soñar con nuestro funeral





[Verso 2]

F# G#m7 A#m7 Am7

Todo esto navega en mi cabeza mientras

G#m7 C#13

lavas los platos

G#m7 C#13

Luego te sientas en la mesa, hablamos del futuro de nosotros,

F# G#m7 A#m7

de nuestros gatos

F# G#m7 A#m7

Me pregunto en que momento permitimos

Am7 G#m7 C#13

nos ganara la costumbre

G#m7

Quisiera retroceder el tiempo,

C#13 F# F#7

cambiar nuestras actitudes y que esta vez el amor nos dure





[Estribillo]

Bmaj7 Bm

Mientras preparo el desayuno me siento

F# G#m7 A#m7

terriblemente sola

Am7 G#m7 C#13

De pronto siento ganas de morir,

F# F#7

quiero escaparme de ti

Bmaj7 Bm

Quisiera estar en el mar, que me lleven las olas,

F# G#m7 A#m7 Am

quiero dejar de respirar

G#m7 C#13 F# F#7

No me despiertes, quiero soñar con nuestro funeral





[Parte instrumental]

Bmaj7 Bm(maj7) F# G#m7 A#m7

G#m7 C#13 F# F#7

Bmaj7 Bm(maj7) F# G#m7 A#m7

G#m7 C#13 F# F#7





[Outro]

Bmaj7 Bm

(Sola) oh, me siento (sola) sola

F# G#m7 A#m7

Perdóname, mi amor, por haberte fallado

Am7 G#m7 C#13 F#maj7

Me siento sola y prefiero nuestro funeral

Discos en los que aparece este acorde: Norma

El acorde de Funeral de Mon Laferte es una versión de la canción original realizada por colaboradores/usuarios de Coveralia.

¿Has encontrado algún error en esta página? Envíanos tu corrección del acorde