música
Buscador

Acorde de Fingers [Bonus Track] - Pink

Letra de Fingers [Bonus Track]

intro 



e|---------------------------------------------|

B|----------13---------------------------------|

G|-----14-------14--17-----16-----16-----------|

D|-----------------------------15------15--14~-|

A|-12------------------------------------------|

E|---------------------------------------------|



(DRUMS)



( 0:19 secs) x2

e|------------------------------------|

B|------------------------------------|

G|------------------------------------|

D|------------------------------------|

A|------------------------------------|

E| -5-5-5-5-5-5-5-5-5-5-5-5-5-5-5-5---|





(This is played on bass but can be played on guitar !)

Verse 1



e|----------------------------------------------|

B|----------------------------------------------|

G|----------------------------------------------|

D|----------------------------------------------|

A|----------------------------------------8-7---|

E|-5-5—-8-8—-7-7—-1-1-0-0--5-5-—8-8-—7-7--------|

(I’m alone...............ceiling)



e|----------------------------------------------|

B|----------------------------------------------|

G|----------------------------------------------|

D|----------------------------------------------|

A|----------------------------------------8-7---|

E|-5-5—-8-8—-7-7—-1-1-0-0--5-5-—8-8-—7-7--------|

(I’m kinda..............sleep)



e|----------------------------------------------|

B|----------------------------------------------|

G|----------------------------------------------|

D|----------------------------------------------|

A|----------------------------------------8-7---|

E|-5-5—-8-8—-7-7—-1-1-0-0--5-5-—8-8-—7-7--------|

(and you................complete)



e|----------------------------------------------|

B|----------------------------------------------|

G|----------------------------------------------|

D|----------------------------------------------|

A|----------------------------------------8-7---|

E|-5-5—-8-8—-7-7—-1-1-0-0--5-5-—8-8-—7-7--------|

(and when...............dream)



Chorus (when it’s)

X3

e|---------------------------------|

B|---------------------------------|

G|---------------------------------|

D|---------5-5-5-5-----------------|

A|-7-7-7-7-3-3-3-3-9-9-9-9-8-8-8-8-|

E|-5-5-5-5---------7-7-7-7-6-6-6-6-|

(late at ……………………sleep)



4th time play this



e|-----------------------------|

B|-----------------------------|

G|-----------------------------|

D|---------5-5-5-5-------------|

A|-7-7-7-7-3-3-3-3-9-9-9-9—8—8~|

E|-5-5-5-5---------7-7-7-7—6—6~|



Pre verse – can be play two ways

X2

e|--------------------------------------------|

B|----------13--------------------------------|

G|-----14-------14--17-----16-----16----------|

D|----------------------------15------15--14~-|

A|-12-----------------------------------------|

E|--------------------------------------------|



(or)

x2

e|--------------------------------------|

B|--------------------------------------|

G|--------------------------------------|

D|--------------------------------------|

A|--------------------------------------|

E| -5-5-5-5-5-5-5-5-5-5-5-5-5-5-5-5-----|





Verse 2 >>>>>>>>>>>>> (*=10)



e |-----------------------------------------------------|

B|------------------------------------------------------|

G|------------------------------------------------------|

D|-14-14--17-17--16-16--**-99--14-14--17-17--16-16--*-9-|

A|-12-12—-15-15—-14-14--88-77--12-12—-15-15—-14-14—-8-7-|

E|------------------------------------------------------|

(I’m starving……………………....attention!)



e|--------------------------------------------------------|

B|--------------------------------------------------------|

G|--------------------------------------------------17-16-|

D|-14-14--17-17--16-16--**-99--14-14--17-17--16-16--15-14-|

A|-12-12—-15-15—-14-14--88-77--12-12—-15-15—-14-14—-------|

E|--------------------------------------------------------|

(I’m begging……………………....suggestion!)



e|------------------------------------------------------|

B|------------------------------------------------------|

G|------------------------------------------------------|

D|-14-14--17-17--16-16--**-99--14-14--17-17--16-16--*-9-|

http://www.coveralia.com/acordes/fingers--bonus-track--pink.php

A|-12-12—-15-15—-14-14--88-77--12-12—-15-15—-14-14—-8-7-|

E|------------------------------------------------------|

(I bite my…………………….......scream!)



e|--------------------------------------------------------|

B|--------------------------------------------------------|

G|--------------------------------------------------17-16-|

D|-14-14--17-17--16-16--**-99--14-14--17-17--16-16--15-14-|

A|-12-12—-15-15—-14-14--88-77--12-12—-15-15—-14-14—-------|

E|--------------------------------------------------------|

(I’m almost……………………..at me!)



Chorus (when it’s)

X3

e|---------------------------------|

B|---------------------------------|

G|---------------------------------|

D|---------5-5-5-5-----------------|

A|-7-7-7-7-3-3-3-3-9-9-9-9-8-8-8-8-|

E|-5-5-5-5---------7-7-7-7-6-6-6-6-|

(late at ……………………sleep)



4th time play this



e|--------------------|

B|--------------------|

G|--------------------|

D|---------5-5-5-5----|

A|-7-7-7-7-3-3-3-3----|

E|-5-5-5-5------------|





Bridge

X4

e|-----------------------------------------------|

B|----------13-----------------------------------|

G|-----14-------14--17-----16-----16-------------|

D|-----------------------------15------15--14~---|

A|-12--------------------------------------------|

E|-----------------------------------------------|





Verse 3



e|----------------------------------------------|

B|----------------------------------------------|

G|----------------------------------------------|

D|----------------------------------------------|

A|-----------------------------------------8-7--|

E|-5-5—-8-8—-7-7—-1-1-0-0--5-5—-8-8-—7-7--------|

(I’m restless...........caffeine)



e|----------------------------------------------|

B|----------------------------------------------|

G|----------------------------------------------|

D|----------------------------------------------|

A|-----------------------------------------8-7--|

E|-5-5--8-8—-7-7—-1-1-0-0--5-5--8-8—-7-7--------|

(but I’m………………….see)



e|--------------------------------------------------------|

B|--------------------------------------------------------|

G|--------------------------------------------------17-16~|

D|-14-14--17-17--16-16--**-99--14-14--17-17--16-16--15-14~|

A|-12-12—-15-15—-14-14--88-77--12-12—-15-15—-14-14—-------|

E|--------------------------------------------------------|

(cuz I.......................give!)



final Chorus (when it’s)

X3

e|---------------------------------|

B|---------------------------------|

G|---------------------------------|

D|---------5-5-5-5-----------------|

A|-7-7-7-7-3-3-3-3-9-9-9-9-8-8-8-8-|

E|-5-5-5-5---------7-7-7-7-6-6-6-6-|

(late at ……………………sleep)



4th time play this



e|------------------------------|

B|------------------------------|

G|------------------------------|

D|---------5-5-5-5--------------|

A|-7-7-7-7-3-3-3-3-9-9-9-9—8—8--|

E|-5-5-5-5---------7-7-7-7—6—6--|



e|---------------------------------|

B|---------------------------------|

G|---------------------------------|

D|---------5-5-5-5-----------------|

A|-7-7-7-7-3-3-3-3-9-9-9-9-8-8-8-8-|

E|-5-5-5-5---------7-7-7-7-6-6-6-6-|

(late at ……………………sleep)





4th time play this



e|------------------|

B|------------------|

G|------------------|

D|---------5-5-5-5--|

A|-7-7-7-7-3-3-3-3--|

E|-5-5-5-5----------|





Outro x2

e|----------------------------------------------|

B|----------13----------------------------------|

G|-----14-------14--17-----16-----16------------|

D|-----------------------------15------15--14~--|

A|-12-------------------------------------------|

E|----------------------------------------------|

Discos en los que aparece este acorde: I'm Not Dead , I'm Not Dead (Japan Edition)

El acorde de Fingers [Bonus Track] de Pink es una versión de la canción original realizada por colaboradores/usuarios de Coveralia.

¿Has encontrado algún error en esta página? Envíanos tu corrección del acorde