música
Buscador

Acorde de Father And Son - Cat Stevens

Letra de Father And Son

 INTRO:   


  3--3-3-3-3---3--3/5     4 x a intro  
  0--0-0-0/1--1--1---  
  0--0-0-0-----------  
  0--0-0-0-----------  
  2--2-2-2-----------  
  3--3-3-3-----------  



       G                 D                C        Am7  
It's not time to make a change, just relax, take it easy  
             G                   Em             
you're still young, that's your fault,  
           Am               D  
there's so much you have to know  
      G               D           C           Am7  
Find a girl, settle down, if you want, you can marry  
      G      Em       Am        D  
Look at me, I am old, but I'm happy    



    G                   Bm             C                Am7  
I was once like you are now, and I know that's it's not easy  
     G                Em            Am         D   
to be calm when you've found something going on  
            G             Bm  
But take your time, think a lot,   
        C                 Am7   
think of everything you've got  
            G             Em  
for you will still be here tomorrow,   
        D       G        C  
but your dreams may not  


comment: son}  
       G          Bm  
How can I try to explain,   
      C            Am7  
when I do he turns away again   
    G              Em               Am      D  
It's always been the same, same old story.  
        G              Bm            C            Am7  
From the moment I could talk, I was ordered to listen   
            G        Em               D        G  
now there's a way and I know that I have to go away.   
  D     C      G       
ocultar esta pestaña I know I have to go   

  3--3-3-3-3---3--3/5      
  0--0-0-0/1--1--1---  
  0--0-0-0-----------  
  0--0-0-0-----------  
  2--2-2-2-----------  
  3--3-3-3-----------  

 Dá P. enrolar com este solo, q eh feito praticamente como se fosse a voz...eh mto simples!!!  

-------|----12--------|--------------12----------|---------------------|------  
-12-13-|-15----15--12-|-15-15--15-15-------------|-12-------12---13-12-|------  
-------|--------------|----------------12--12h14-|----12h14------------|------  
-------|--------------|--------------------------|---------------------|------  
-------|--------------|--------------------------|---------------------|------  
-------|--------------|--------------------------|---------------------|------  
                                                                                

--------------------------------------|--------------------|-------0--------|-  
---------------------------------0--1-|-3---0--1--3---0--1-|-3-3-3----------|-  
-14--12----12---11h12p11--------------|--------------------|---------0--0-2-|-  
--------14----------------14-12-------|--------------------|----------------|-  
--------------------------------------|--------------------|----------------|-  
--------------------------------------|--------------------|----------------|-  
                                                                                

-----------------|--------------------|--------------------3---3--3--3-|------  
-------------1---|------------------0-|-3--3--1--1-p-0----3---3--3--3-|------  
--4---0-2-4----4-|-4--2--0-----0------|--------------------0---0--0--0-|------  
-----------------|-----------0--------|--------------------0---0--0--0-|------  
-----------------|--------------------|--------------------2---2--2--2-|------  
-----------------|--------------------|--------------------3---3--3--3-|------  
                                                                                

-----------3---5----3--3--3--3-|-----------3---5------------------------------  
-1------------------3--3--3--3-|-1--------------------------------------------  
-0---4-/-5---5------0--0--0--0-|-0---4-/-5---5--------------------------------  
-2------------------0--0--0--0-|-2--------------------------------------------  
-3------------------2--2--2--2-|-3--------------------------------------------  
--------------------3--3--3--3-|----------------------------------------------  
               

{comment: Father}  
        G            D                 C          Am7     
It's not time to make a change, just relax, take it slowly  
            G                 Em  
you're still young, that's your fault,   
          Am               D  
there's so much you have to go through  
      G            D            C           Am7  
Find a girl, settle  down, if you want, you can marry  
      G          Em         Am     D  
Look at me, I am old, but I'm happy   


{comment: son} 
     G                 Bm  
All the times that I've tried keeping   
  C             Am7  
all the things I knew inside  
    G             Em           Am       D  
It's hard but it's harder to ignore it  
             G          Bm  
If they were right, I'd agree,   
        C               Am7  
but it's them they know not me   
           G          Em            D      G  
now there's a way and I know that I have to go away.   
  D     C       G  
I know I have to go  

Letra subida por: Anónimo

El acorde de Father And Son de Cat Stevens es una versión de la canción original realizada por colaboradores/usuarios de Coveralia.

¿Has encontrado algún error en esta página? Envíanos tu corrección del acorde