música
Buscador

Acorde de Everything's Not Lost (Live At Rockefeller Music Hall) - Coldplay

Letra de Everything's Not Lost (Live At Rockefeller Music Hall)

Verse 1:



Eb Gm Cm7

Bb

When you try your best, but you don't succeed



Eb Gm Cm7 Bb

When you get what you want, but not what you need



Eb Gm Cm7 Bb

When you feel so tired, but you can't sleep



Eb Gm Cm7 Bb

Stuck in re - ver - se.



Verse 2:



Eb Gm Cm7

Bb

When the tears come streaming down your face



Eb Gm Cm7 Bb

When you lose something you can't replace



Eb Gm Cm7

Bb

When you love someone, but it goes to waste



Eb Gm Cm7 Bb

Could it be wo - rse?



Chorus: (Em is only 1 strum )



Ab Gm Bb

Lights will gu - ide you home



Ab Gm Bb

And ig - n -it- e your bones



Ab Gm Bb Eb

And I will try to fix you



Instrumental:



C, Em ,Am7, C/G x 2 ( can be picked to mimic piano, hit bass notes, C,B,A,G

4 chords)



Verse 3:



Eb Gm Cm7 Bb

And high up above or down below



Eb Gm Cm7 Bb

When you're too in love to let it go



Eb Gm Cm7 Bb

If you never try, then you'll never know



Eb Gm Cm7 Bb

Just what you're wor - th



Chorus: (Em is only 1 strum )



Ab Gm Bb

Lights will gu - ide you home



Ab Gm Bb

And ig - n -it- e your bones



Ab Gm Bb Eb

And I will try to fix you



Bridge:



Chords used for bridge only !!!



(Hammer Pinky where you think appropriate)



C - x32013 ( notice pinky at fret 3)

C/G - 320013

G* - 320003



Instrumental - ( Eb, Ab , Eb , Eb/G , Bb*

Cm7, Ab, Eb, Eb/Bb, Bb* ) x2



Or alternatively, play the solo part through 4 times. This tablature is NOT in relation

the capo.



|------------------------------------------------------------------|

|-4-4-4-4-4-4-4-4-4-4-4/11-11-11-114-4-4-4-4-4-4-4-4-4-4/11-11-11-|

|------------------------------------------------------------------|

|------------------------------------------------------------------|

|------------------------------------------------------------------|

|------------------------------------------------------------------|



|------------------------------------------------------------------|

|-114-4-4-4-4-4-4-4-4-4-4/11-11-11-114-4-4-4-43-3-3-3-3-3-3-3-3-|

|------------------------------------------------------------------|

|------------------------------------------------------------------|

|------------------------------------------------------------------|

|------------------------------------------------------------------|



|------------------------------------------------------------------|

|-3-3--------------------------------------------------------------|

|------------------------------------------------------------------|

|------------------------------------------------------------------|

|------------------------------------------------------------------|

|------------------------------------------------------------------|



If you play the solo instead of the intrumental, then play it four times over, then

into this part.



Eb Ab



Tears stream, down your face



Eb Eb/Bb Bb*



When you lose something you cannot replace



Cm7 Ab



Tears stream down your face



Eb Eb/Bb Bb*



And I.........



Eb Ab



Tears stream, down your face



Eb Eb/Bb Bb*



I promise you that I'll learn from my mistakes



Cm7 Ab



Tears stream down your face



Eb Eb/Bb Bb*



And I.........



Final Chorus: (quite slow, sung 1 octave lower)



Verse 1:



Eb Gm Cm7

Bb

When you try your best, but you don't succeed

http://www.coveralia.com/acordes/everything-s-not-lost--live-at-rockefeller-music-hall--coldplay.php



Eb Gm Cm7 Bb

When you get what you want, but not what you need



Eb Gm Cm7 Bb

When you feel so tired, but you can't sleep



Eb Gm Cm7 Bb

Stuck in re - ver - se.



Verse 2:



Eb Gm Cm7

Bb

When the tears come streaming down your face



Eb Gm Cm7 Bb

When you lose something you can't replace



Eb Gm Cm7

Bb

When you love someone, but it goes to waste



Eb Gm Cm7 Bb

Could it be wo - rse?



Chorus: (Em is only 1 strum )



Ab Gm Bb

Lights will gu - ide you home



Ab Gm Bb

And ig - n -it- e your bones



Ab Gm Bb Eb

And I will try to fix you



Instrumental:



C, Em ,Am7, C/G x 2 ( can be picked to mimic piano, hit bass notes, C,B,A,G

4 chords)



Verse 3:



Eb Gm Cm7 Bb

And high up above or down below



Eb Gm Cm7 Bb

When you're too in love to let it go



Eb Gm Cm7 Bb

If you never try, then you'll never know



Eb Gm Cm7 Bb

Just what you're wor - th



Chorus: (Em is only 1 strum )



Ab Gm Bb

Lights will gu - ide you home



Ab Gm Bb

And ig - n -it- e your bones



Ab Gm Bb Eb

And I will try to fix you



Bridge:



Chords used for bridge only !!!



(Hammer Pinky where you think appropriate)



C - x32013 ( notice pinky at fret 3)

C/G - 320013

G* - 320003



Instrumental - ( Eb, Ab , Eb , Eb/G , Bb*

Cm7, Ab, Eb, Eb/Bb, Bb* ) x2



Or alternatively, play the solo part through 4 times. This tablature is NOT in relation

the capo.



|------------------------------------------------------------------|

|-4-4-4-4-4-4-4-4-4-4-4/11-11-11-114-4-4-4-4-4-4-4-4-4-4/11-11-11-|

|------------------------------------------------------------------|

|------------------------------------------------------------------|

|------------------------------------------------------------------|

|------------------------------------------------------------------|



|------------------------------------------------------------------|

|-114-4-4-4-4-4-4-4-4-4-4/11-11-11-114-4-4-4-43-3-3-3-3-3-3-3-3-|

|------------------------------------------------------------------|

|------------------------------------------------------------------|

|------------------------------------------------------------------|

|------------------------------------------------------------------|



|------------------------------------------------------------------|

|-3-3--------------------------------------------------------------|

|------------------------------------------------------------------|

|------------------------------------------------------------------|

|------------------------------------------------------------------|

|------------------------------------------------------------------|



If you play the solo instead of the intrumental, then play it four times over, then

into this part.



Eb Ab



Tears stream, down your face



Eb Eb/Bb Bb*



When you lose something you cannot replace



Cm7 Ab



Tears stream down your face



Eb Eb/Bb Bb*



And I.........



Eb Ab



Tears stream, down your face



Eb Eb/Bb Bb*



I promise you that I'll learn from my mistakes



Cm7 Ab



Tears stream down your face



Eb Eb/Bb Bb*



And I.........



Final Chorus: (quite slow, sung 1 octave lower)



Ab Gm Bb

Lights will gu - ide you home



Ab Gm Bb

And ig - n -it- e your bones



Ab Gm Bb Eb

And I will try to fix you



Letra subida por: Anónimo

Discos en los que aparece este acorde: Trouble - Norwegian Live (Ep)

El acorde de Everything's Not Lost (Live At Rockefeller Music Hall) de Coldplay es una versión de la canción original realizada por colaboradores/usuarios de Coveralia.

¿Has encontrado algún error en esta página? Envíanos tu corrección del acorde