música
Buscador

Acorde de Eternidad - Octavia

Asus2 Dmaj7   (3 Veces)





El sonido de la quena en guitarra seria asi:



e------9-7-5----9-7-5---9-7-5---9-7-5---10-9-7--10-9-7--10-9-7--10-9-7--9-7-5--9-7-5

b-------------------------------------------------------------------------

g--------------------------------------------------------------------------

d-------------------------------------------------------------------------

a-------------------------------------------------------------------------

E-------------------------------------------------------------------------





Asus2 Dmaj7

Muéstrame tu luz yo me encargo de llegar

Asus2 Dmaj7

Muéstrame tu voz guíame en la oscuridad



Dmaj7 E F#m A7

Dime que la lluvia no nos ahogara

Dmaj7 Bm MI MI7 Asus2

Dime que muy junto a mi te quedaras por la eternidad



(Asus2 Dmaj7)



Asus2 Dmaj7 Asus2 Dmaj7

Muéstrame quien soy dame una oportunidad

Asus2 Dmaj7 Asus2 Dmaj7

Muéstrame tu sed yo seré tu manantial



Dmaj7 E F#m A7

http://www.coveralia.com/acordes/eternidad-octavia.php

Dime que un diluvio no nos hundirá

Dmaj7 Bm E F#m

Dime que muy junto a mi te quedaras

A7 Dmaj7 SIm A7

Dime que muy junto a mi te quedaras

E7 Asus2 Dmaj7 Asus2

Por la eternidad Por la eternidad

Asus2 E F#m A7

Dime que la lluvia no nos hundirá

Dmaj7 Bm E F#m

Dime que muy junto a mi te quedaras

A7 Dmaj7 Bm G E

Dime que muy junto a mi te quedaras

E7 Asus2 Dmaj7 Asus2

por la eternidad por la eternidad







se repite (Asus2 Dmaj7 Asus2)



y finaliza con...



e------0-------------

b---------0----------

g-----------2--------

d--------------------

a--------------------

E--------------------





Letra subida por: Anónimo

Discos en los que aparece este acorde: 4

El acorde de Eternidad de Octavia es una versión de la canción original realizada por colaboradores/usuarios de Coveralia.

¿Has encontrado algún error en esta página? Envíanos tu corrección del acorde