música
Buscador

Acorde de Este Madrid - Leño

Letra de Este Madrid

INTRO 



e |----------------|---------------------------------------------------------|

B |----------------|---------------------------------------------------------|

G |--4--4--4-4-----|---2---4/5-4---2-----------------------------------------|

D |--4--4--4-4--x8-|-4---4-------4-----6--2----4/5--4---2--4--4-4-4--2--4----|

A |--2--2--2-2-----|-------------------4----4---------4----2--2-2-2--0--2--4-|

E |----------------|-------------------------------------------------------2-|





e |--------------------------------------------------------------------------|

B |--------------------------------------------------------------------------|

G |----2---4/5-4---2---------------------------------------------------------|

D |------4-------4-----6--2----4/5--4---2--4--4-4-4--2--4--------------------|

A |--------------------4----4---------4----2--2-2-2--0--2--4-----------------|

E |--------------------------------------------------------2-----------------|



e |--------------------------------------------------------------------------|

B |--------------------------------------------------------------------------|

G |----2---4/5-4---2---------------------------------------------------------|

D |------4-------4-----6--2----4/5--4---2--4--4-4-4--2--4--------------------|

A |--------------------4----4---------4----2--2-2-2--0--2--4-----------------|

E |--------------------------------------------------------2-----------------|



e |----------------------------------------------------------|---------------|

B |----------------------------------------------------------|---------------|

G |----2---4/5-4---2-----------------------------------------|---------------|

D |------4-------4-----6--2----4/5--4---2--4--4-4-4--2--4----|-----?---------|

A |--------------------4----4---------4----2--2-2-2--0--2--4-|---------------|

E |--------------------------------------------------------2-|---------------|

{PARTE A FIN A} { PARTE B

e |-------------------------------------|------------------------------------|

B |-------------------------------------|------------------------------------|

G |----2---4/6--------------------------|----------2---4-2---------2---4-2---|

D |------4-------------2---4/5--4--2--4-|--4-X-4-4-2-4-4-2-4-X-4-4-2-4-4-2---|

A |------------4-""""----4------2--0--2-|--4-X-4-4---4-----4-X-4-4---4-------|

E |-------------------------------------|------------------------------------|



e |--------------------------------------------------------------------------|

B |-----------------------------------------------2---4-2---------2---4-2----|

G |------------3---5-3---------3---5-3----4-X-4-4-2-4-4-2-4-X-4-4-2-4-4-2----|

D |----5-X-5-5-3-5-5-3-5-X-5-5-3-5-5-3----4-X-4-4---4-----4-X-4-4---4--------|

A |----5-X-5-5---5-----5-X-5-5---5-------------------------------------------|

E |--------------------------------------------------------------------------|





e |-------------------------------------------------------------------------|

B |-------------------------------------------------------------------------|

G |------------3---5-3---------3---5-3--6--6-6-6---6------------4-----------|

D |----5-X-5-5-3-5-5-3-5-X-5-5-3-5-5-3--4--4-4-4-6-4-4--4-4-4-4-3--8--8-8-8-|

A |----5-X-5-5---5-----5-X-5-5---5---------------4---3--3-3-3-3----6--6-6-6-|

E |-------------------------------------------------------------------------|





FIN B

e |-----------------------|---------|-------|-------------------------------|

B |-----------------------|---------|-------|-------------------------------|

G |------8-------------4--|-REPETIR-|-2L4 |-REPETIR-----------------------|

D |----8-6--4--4-4-4-4-2--|-PARTE B-|-------|-PARTE A-----------------------|

A |----6----2--2-2-2-2----|---------|-------|-------------------------------|

E |-----------------------|---------|-------|-------------------------------|





http://www.coveralia.com/acordes/este-madrid-leno.php



AQUÍ EMPIEZA EL RITMO DE LA CANCION



{PARTE C

e |-------------------------------------------------------------------------|

B |-------------------------------------------------------------------------|

G |--------------------------------------------------7--6-6-4-2-------------|

D |----4-X-X-4-X-X-4-X-X-4-4--7-X-X-7-X-X-7-X-X-7-7--7--6-6-4-2--4-X-X-4----|

A |----4-X-X-4-X-X-4-X-X-4-4--7-X-X-7-X-X-7-X-X-7-7--5--4-4-2-0--4-X-X-4----|

E |----2-X-X-2-X-X-2-X-X-2-2--5-X-X-5-X-X-5-X-X-5-5--------------2-X-X-2----|



FIN C F# E

e |---------------------|------------|--------------------------------------|

B |---------------------|------------|--------------------------------------|

G |---------------------|------------|--------------------------------------|

D |----X-X-4-X-X-4-2----|--REPETIR---|----4-X-X-4-X-X-4-X-X-4-2-------------|

A |----X-X-4-X-X-4-2----|--PARTE C---|----4-X-X-4-X-X-4-X-X-4-2-------------|

E |----X-X-2-X-X-2-0----|------------|----2-X-X-2-X-X-2-X-X-2-0-------------|





F# A D C# B A F# E

Tu aquí y yo allí seguimos unidos, vivimos todo por igual

F# A D C# B A F# E F# F#

Hemos fumados y nos colocamos, tendremos plena libertad

B A B A F# E F#

En la bolsa alcanzaras aire limpio sin igual

A B C# E F# B D C# B A F# E F# E

Es una mierda este Madrid que ni las ratas pueden vivir



F# A D C# B A F# E

Queremos una central que nos suministre, energía para destruir

F# A D C# B A F# E F# F#

No mucha vegetación ni ? que estorban y no, no podemos construir

B A B A F# E F#

Tenemos que eliminar a los antinuclear

A B C# E F# B D C# B A F# E F# E

Es una mierda este Madrid que ni las ratas pueden vivir



AQUÍ HACE EL SOLO, QUE NO LO SACAO ENTERO, PERO POR SI OS SIRVE PARA ALGO ES CON LA ESCALA PENTATONICA MENOR EN FA#, PODÉIS IMPROVISAR





F# A D C# B

No hagas caso a esta canción pues todos es mentira lo que falta es un buen

A F# E

final

F# A D C# B A F# E F# F#

Aire puro y natural y de cerveza, de cocido y de salchichón

B A B A F# E F#

Ella se ha traído al bar una mesa y un colchón

A B C# E F# B D C# B A F# E F# F#

Es una mierda este Madrid que ni las ratas pueden vivir

A B C# E F# B D C# B A F#

Es una mierda este Madrid que ni las ratas pueden vivir





SIMBOLOS: / -> SLIDE

L -> LIGADO

-> LOS ACORDES QUE TENGA EL SE HACEN UN OCTAVA MAS PARA ARRIBA

? -> IMAGINAOS



SUGERENCIAS: TOCAR TODAS LA NOTA CON QUINTA (TRES CUERDAS)

Letra subida por: Anónimo

Discos en los que aparece este acorde: Leño , Maneras De Vivir (Todos Los Grandes Exitos) , Indirecto , , Vivo '83

El acorde de Este Madrid de Leño es una versión de la canción original realizada por colaboradores/usuarios de Coveralia.

¿Has encontrado algún error en esta página? Envíanos tu corrección del acorde