música
Buscador

Acorde de Estado Salvaje - Airbag

Letra de Estado Salvaje



Intro



E:--0-0-1-0-3-0-1-0--0-1-0-3-0-1--0-0-1-0-3-0-1-0--0-1-0-



E:--7-7-7-6-5-5-3-0-0-3-0--3-0-7-7-7-6-5-5-3-0-0-3-0



E:--0-3-5-7-7-7-6-5-5-3-0-0-3-0-3-0-7-7-7-6-5-5-3-0-0-3-0-0



Riff 1 (x2)

MI

Es el fin de los dias



Riff 1 (x2)

MI

Tu liberacion



Riff 2 Riff 1

LA MI

Fin de la hipocrecia



Riff 2 Riff 1

LA MI

Tal ves, puedas ser vos



Estribillo:



E:--7-7-7-6-5-5-3-0-0-3-0--3-0-7-7-7-6-5-5-3-0-0-3-0



E:--0-3-5-7-7-7-6-5-5-3-0-0-3-0-3-0-7-7-7-6-5-5-3-0-0-3-0-0



Estrofa



MI

Rey de la fantasia

MI

Soy revolucion

LA MI

Fin de la caseria

SI LA MI

Tal ves, puedas ser vos



Estribillo



SI LA MI SI LA MI

Uhhhh no te quedes ahi elevame al estado mas salvaje

SI LA MI SI LA MI

Uhhhh no me mires asi soy como un dios que necesita sangre



Despues hace esto con la guitarra antes del solo



a:----------------------5-5-7-7

E:--0-0-3-3-5-5-6-6-7-7--------



d:---------------------------5

http://www.coveralia.com/acordes/estado-salvaje-airbag.php

a:----------------------5-557---7

E:--0-0-3-3-5-5-6-6-7-7-



a:----------------------5-5-7-7

E:--0-0-3-3-5-5-6-6-7-7--------



d:---------------------------5

a:----------------------5-557---7

E:--0-0-3-3-5-5-6-6-7-7-



Durante el solo:



E:--7-7-7-6-5-5-3-0-0-3-0--3-0-7-7-7-6-5-5-3-0-0-3-0



E:--0-3-5-7-7-7-6-5-5-3-0-0-3-0-3-0-7-7-7-6-5-5-3-0-0-3-0-0





E:--7-7-7----6--5--------------0-0

Sigo despertando estado salvaje

E:--7-7-7----6--5--------------0-0

Sigo despertando estado salvaje

E:--7-7-7----6--5-5---3--0-0-0-0-0

Sigo despertando estado salvaje

E:--7-7-7----6--5-5---3--0-0-0-0-0

Sigo despertando estado salvaje

E:--7-7-7----6--5-5---3--0-0-0-0-0

Sigo despertando estado salvaje

E:--7-7-7----6--5-5---3--0-0-0-0-0

Sigo despertando estado salvaje

E:--7-7-7----6--5-5---3--0-0-0-0-0

Sigo despertando estado salvaje

E:--7-7-7----6--5-5---3--0-0-0-0-0

Sigo despertando estado salvaje



Estribillo:



E:--7-7-7-6-5-5-3-0-0-3-0--3-0-7-7-7-6-5-5-3-0-0-3-0



E:--0-3-5-7-7-7-6-5-5-3-0-0-3-0-3-0-7-7-7-6-5-5-3-0-0-3-0-0





Fin



Riff 1 :



E:--0-0-1-0-3-0-1-0--0-1-0-3-0-1-



Riff 2 :



a:--0-0-1-0-3-0-1-0-









Letra subida por: Anónimo

Discos en los que aparece este acorde: Voragine , Voragine (Edicion Deluxe) , Samsara , Samsara

El acorde de Estado Salvaje de Airbag es una versión de la canción original realizada por colaboradores/usuarios de Coveralia.

¿Has encontrado algún error en esta página? Envíanos tu corrección del acorde