música
Buscador

Acorde de Esperanza - Horcas

Letra de Esperanza

El tema se toca en RE (afinación)

Intro:

59:00seg de ruido de maquinas



1|------------------|

2|------------------|

3|------------------|=>Coria

4|-2-2-2--3-2-3-2---|

5|-2-2-2--3-2-3-2---|

6|-0-0-0------------| Esto significa

|pm.... | que lo tocan a

| | A LA vez

1|------------------|

2|------------------|

3|------------------|=>Lis

4|------------------|

5|--------6-5-6-5---|

6|-0-0-0--0-0-0-0---|

pm....



Riff 1

1|------------------|

2|------------------|

3|------------------|

4|------------------|

5|--4--5--4---------|

6|--2--3--2---------|



Riff 2

1|-----------------------------------|

2|-----------------------------------|

3|-----------------------------------|

4|----------2------------------------|

5|-4--5--4--2------------------------|

6|-2--3--2--0-0-0--0-0-0--0-0--0-0-0-|

pm......................

http://www.coveralia.com/acordes/esperanza-horcas.php



Riff 3 Estribillo

1|---------------|

2|---------------|

3|---------------|

4|----3--2-------|

5|-4--5--2---4---|

6|-2-----0---2---|

| |

| |

1|---------------|

2|---------------|

3|---------------|

4|---------------|

5|-------6-5-6-5-|

6|-0-0-0-0-0-0-0-|

pm....



Riff 4 antes del solo

1|---------------------------|

2|---------------------------|

3|-2-------------------------|

4|-2--3--4-4-4--4-4-4--4-4-4-|

5|-0--1--2-2-2--2-2-2--2-2-2-|

6|---------------------------|



solo. ?



Riff 1

Riff 2

Riff 3

Final con intro



Esto estodo espero que les sirva saquenlo no

es tan dificíl AGUANTE HORCAS Y OSVALDO CIVILE

Letra subida por: Anónimo

Discos en los que aparece este acorde: Horcas , Horcas Vive , La Maldicion Continua

El acorde de Esperanza de Horcas es una versión de la canción original realizada por colaboradores/usuarios de Coveralia.

¿Has encontrado algún error en esta página? Envíanos tu corrección del acorde