música
Buscador

Acorde de Escombro En La Ciudad - La 25

Letra de Escombro En La Ciudad

Am*       F*

e|-8--|  e|-5-|
B|-10-|  B|-6-|
G|-9--|  G|-5-|

   G*      E*

e|-7-|  e|-4-|
B|-8-|  B|-5-|
G|-7-|  G|-4-|

   C*
e|-12-|
B|-13-|
G|-12-|


[INTRO] Am*-F*-G*-C*-E* (Bajito y dsps alto)

Dsps así A-F-G-E

GUITARRA 1:

e|-----------------------------------------------------|
B|-----------------------------------------------------|
G|-----------------------------------------------------|
D|-----------------------------------------------------|
A|---------------------------------3-2-0-----5-3-2-7-E-|
E|-0-7-8-5-Am-5-7-8-5-Am-5-7-8-1-F-------3-G-----------|

GUITARRA 1: Repite

GUITARRA 2:

e|-----------------------------------------------------|
B|--5-5---5-6-5---5-6-8~-8-6-5----5-6-5~-5h6p5-------5-|
G|-7-7---7-------7------------7--7-------------7-5-7---|
D|-----------------------------------------------------|
A|-----------------------------------------------------|
E|-----------------------------------------------------|

[VERSO]


Am
Globalizaran
           F
montañas cielo y mas alla
        G
y caeremos derrocados
           E
como escombro en la ciudad

Am
Dicen que vos sos
          F
el mas temible en el lugar
         G
y el sistema mata gente
         E
que nunca demostraran

Am
Ocultandote
             F
de China hasta Jerusalen
         G
vas planeando tramas nuevas
          E
que al acecho siempre estan



[PUENTE] (En base a Am-F-G-C-E)


e|------------------------------------------4-/7------|
B|--5-6-5---5-6-8~--8-6-5----5-6-5h6p5---5-6----6-5-5-|
G|-7-------7-------------7--7-----------7----------7--|
D|----------------------------------------------------|
A|----------------------------------------------------|
E|----------------------------------------------------|


[VERSO]

Imperios derechistas
no creen conformidad
oro rojo oro negro
agua dulce dame mas

Pero saben que los esperan
que nunca se rendiran
como Adan, esos villanos,
morderan y moriran

[PUENTE]

[VERSO]

Al grito de guerra
las mujeres alistan
un ejercito de niños
que no conocen la paz

Un pueblo de pie
nunca pierde su dignidad
envueltos en banderas
marcharan y cantaran así

uohhhh uooohh (Am-F-G-C-E)

[PUENTE]

[VERSO]

Am*
Yo estoy aqui
              F*
perteneciendo a este lugar
         G*
a este reino de tiranos
          C*                      E*
que me haran vivir sin fe, porque si

Ocultandome
solo de la luz de la ciudad
y un cobarde fugitivo
iré a otro lugar, cuando esten aqui

Yo estoy aqui
ocultandome
escapandome
solo de la luz de la ciudad

Un pueblo de pie
no se rendirá
al grito de guerra
marcharan y cantaran y moriran así

[PUENTE] (hasta terminar en Am)




Letra subida por: Anónimo

Discos en los que aparece este acorde: Mundo Perfecto

El acorde de Escombro En La Ciudad de La 25 es una versión de la canción original realizada por colaboradores/usuarios de Coveralia.

¿Has encontrado algún error en esta página? Envíanos tu corrección del acorde