música
Buscador

Acorde de Entre Mis Recuerdos - Chayanne

Letra de Entre Mis Recuerdos

Punteo Inicial: 

1-5-5-5-5-8-5/8-6-5-6.--5-5-5-8----------------------------------5-----

2-6------------------6-8-------8/10-8-6-8.----5.5-5-5-6-6-6-8.6-8-8-6--

3----------------------------------------7-7-7-------------------------

4----------------------------------------------------------------------

5-8-------6---------8--5------6----------------------------------------

6---------------------------------------8------------------------------

(Arpegio con:F G/D=XX0553 F/G=XX0565 )

PUNTEO 2:

1-9-9-9-9-14-7/9-7-6-7---6-6-6-6-11--------------------------------6---

2---------------------7-9----------9/11-9-7-9-----6-6-6-7-7-7-9.7-9-9-7

3----------------------------------------------------------------------



F Bb Dm C Bb C

Cuando la pena cae sobre mi,el mundo deja ya de existir.Miro hacia atras,

C# Eb F

y busco entre mis recuerdos.

F Bb Dm C Bb C

Para encontrar el niño que fui,y algo de todo lo que perdi.Miro hacia atras

C# Eb F

y busco entre mis recuerdos.

F F6 Gm Gm7

Sueño,con noches brillantes,al borde,de un mar de aguas claras

Gm Gm7 C

y puras,un aire cubierto de azahar.

F Bb Dm C Bb C

http://www.coveralia.com/acordes/entre-mis-recuerdos-chayanne.php

Cada momento era especial,dias sin prisa,tardes de paz.Miro hacia atras,

C# Eb F

y busco entre mis recuerdos.

F F6 Gm Gm7

Yo quisiera,volver a encontrarla,por esa nostalgia de tanta

Gm Gm7 C

inocencia,que tan poco tiempo duro.

F Bb Dm C Bb

Con el veneno sobre mi piel,frente a las sombras de la pared.Miro hacia

C C# Eb F

atras,y busco entre mis recuerdos.

Dm Gm Dm C C# F#

Y si las lagrimas vuelven,ellas me haran mas fuerte ee ee(PUNTEO 2)



F# F#6 G#m G#m7

Yo quisiera,volver a encontrarla,por esa nostalgia de tanta

G#m G#m7 C#

inocencia,que tan poco tiempo duro.

F# B D#m C#

Cuando la pena cae sobre mi,quiero encontrar aquello que fui,

B C# D E F#

Miro hacia atras y busco entre mis recuerdos.

B C# D E F#

Vuelvo hacia atras y busco entre mis recuerdos...

Letra subida por: Anónimo

Discos en los que aparece este acorde: Volver A Nacer , Desde Siempre , Esencial

El acorde de Entre Mis Recuerdos de Chayanne es una versión de la canción original realizada por colaboradores/usuarios de Coveralia.

¿Has encontrado algún error en esta página? Envíanos tu corrección del acorde