música
Buscador

Acorde de En La Ciudad Violenta - Logos

Letra de En La Ciudad Violenta

Intro:



Am C G/Am X2

e|------------------------------------------|

B|------------------------------------------|

G|--------5------5------------5-----5-------|

D|-7------5------5-----7------5-----5--3/7--|

A|-7--6^7----6^7---6^7-7--6^7---6^7----5/7--|

E|-5-------------------5---------------3/5--|



solo del intro

1|-------5--------------------------|

|---------8^5----------------------|

|-7/(9)--------7/(9)\7^5--7/(9)\7~-|

|----------------------------------|

|----------------------------------|

6|----------------------------------|



Am

En las entrañas cancerosas

Acordes de 5ta octavados; Si no tenés pedal hacelo así:

de esta enorme ciudad, 1|----------------------------------------|

|----------------------------------------|

camino y trato de escapar |-9/12\9\5-------------------------------|

|-------------------------------9/10\5/7-|

de su violencia latente, |-7/10\7\3-------------------------------|

6|-------------------------------7/8\ 3/5-|



D5 A5

sintiendo la soledad

G5 A5

de miles de hombres solos

G5/F5 D5

que mendigan amor



y nadie los comprende.



COMO INTRO 1 VEZ



Am

Yo estoy aquí y no puedo dejar de percibir ese dolor

1|-------------------------------------------------------------------------------|

|-------------------------------------------------------------------------------|

|------------------------------5------------------------------------------5-----|

|-7----------------------------5------7-----------------------------------5-5/7-|

|-7------------------------6-7---6-7--7-------------------------------6-7---5/7-|

6|-5---5-5-5--%-%-%-%------------------5---5-5-5---%-%-%-%-%-----------------3/5-|



de no saber lo que quiero



pero en la piel sentirlo,



D5 A5

viendo la ignorancia crecer

G5 A5

como reina en la miseria

G5/F5 D5

cultivando un odio

COMO INTRO

que se vuelve contra mi.



C5 / G5 / A5#



C5 / D5 / E5# / E5 / E5#

En la ciudad violenta.



A5 / E5 / D5# / A5 / D5# / E5

A5 / E5 / D5# / C5 / G5 /



A5# / C5 / D5 / E5# / E5 / E5#

En la ciudad violenta.



1|--------------------------------+--------------------------|

|-4-4-----------4-5-4-2----------+-4-4-----------4-5-4-2----|

|-2-2--2-2-2-2--2-3-2-0--0-2-3^0-+-2-2--2-2-2-2--2-3-2-0-5~-|

|--------------------------------+-----------------------5~-| X3

|--------------------------------+-----------------------3~-|

6|--------------------------------+--------------------------|



1|-----------------------------------------+-------------------------------------|

|-----------------------------------------+-------------------------------------|

|-------7------7-------------7-----7------+-----7------7-------------7-----7----|

|-9-----7------7------9------7-----7--7/9-+-----7------7------9------7-----7--7-|

|-9-8-9----8-9----8-9-9--8-9---8-9----7/9-+-8-9----8-9----8-9-9--8-9---8-9----7-|

6|-7-------------------7---------------5/7-+-------------------7---------------5-|

http://www.coveralia.com/acordes/en-la-ciudad-violenta-logos.php



[ E5 / C5 / F5# /E5# /D5 ]x2 y después el sólo



D5 A5

viendo la ignorancia crecer

G5 A5

como reina en la miseria

G5/F5 D5

cultivando un odio

COMO INTRO

que se vuelve contra mi.



C5 / G5 / A5#



C5 / D5 / E5# / E5 / E5#

En la ciudad violenta.



A5 / E5 / D5# / A5 / D5# / E5

A5 / E5 / D5# / C5 / G5 /





A5# / C5 / D5 / E5# / E5 / E5#

En la ciudad violenta.







SOLO:

|-Delay y Stacato---------------------------------|

1|-----------------+-----------------------------------------------------+-----------------|

|-----------------+----------------+----------------+-------------------+-----------------|

|-11/(13)\11^9^11-+-11-9-11-9------+-11-9-11-9------+-11-9--------------+---------------8-|

|-----------------+-----------11-9-+-----------11-9-+------11-9---------+-9^8----8-9-11---|

|-----------------+----------------+----------------+-----------11-9----+-----11----------|

6|-----------------+--------------------------------------------------12-+-----------------|



1|---------------+--------------+-11/(12)-11-9------------+------------------/----------|

|---------------+-9^11^12^9^11-+--------------12-12/(14)-+-----------------/---9-------|

|-----------8-9-+--------------+-------------------------+---------9-11---/------12-11-|

|----8-9-11-----+--------------+-------------------------+-11^9----------/-------------|

|-11------------+--------------+-------------------------+------11---------------------|

6|---------------+--------------+-------------------------+-----------------------------|



1|-16-14-16-14-16-14/(16)-+------------------------/---------------+-------------------|

|------------------------+-----------16^9--------/----------------+-------------------|

|------------------------+-11/(13)~-------11^9--/--11^9^11^9----9-+-------------------|

|------------------------+---------------------/-------------11---+-------------------|

|------------------------+----------------------------------------+-9-11----9---------|

6|------------------------+----------------------------------------+------12---11-12-9-|



Intersección:

1|------------------------+----------------------|

|------------------------+----------------------|

|-------5-7-5--8-7-5-7^5-+-------5-7-5--8-7-5-7-|

|-7-----5-7-5--8-7-5-7^5-+-7-----5-7-5--8-7-5-7-|

|-7-6^7------------------+-7-6^7----------------|

6|-5----------------------+-5--------------------|



|-Trino con pua --------|

1|-17^15-17^14-17^13-17^12-+-------5---------------+-14/(15)\14/(15)\14/(15)\14/(15)~-|

|-------------------------+---------8^5---5-------+----------------------------------|

|-------------------------+-7/(9)-------7---7^5^7-+----------------------------------|

|-------------------------+-----------------------+----------------------------------|

|-------------------------+-----------------------+----------------------------------|

6|-------------------------+-----------------------+----------------------------------|



Tremolo---------------|

1|----------17-19-20-22-+-20/(22)-|

|-17-19-20-------------+---------|

|----------------------+---------|

|----------------------+---------|

|----------------------+---------|

6|----------------------+---------|



FINAL



COMO *3 (primera parte)

X2

1|--------------------------------+-------------------------------------------|

|-4-4-----------4-5-4-2----------+-4-4-----------4-5-4-2---------------------|

|-2-2--2-2-2-2--2-3-2-0--0-2-3^0-+-2-2--2-2-2-2--2-3-2-0-5-------------------|

|--------------------------------+-----------------------5--2-1-0----5-7-8-7-|

|--------------------------------+-----------------------3--------3--5-7-8-7-|

6|--------------------------------+-----------------------------------3-5-6-5-|

Letra subida por: Anónimo

Discos en los que aparece este acorde: Tercer Acto , La Industria Del Poder

El acorde de En La Ciudad Violenta de Logos es una versión de la canción original realizada por colaboradores/usuarios de Coveralia.

¿Has encontrado algún error en esta página? Envíanos tu corrección del acorde