música
Buscador

Acorde de En Guardia - Horcas

Letra de En Guardia





Intro:

Do#

|------------------|

|------------------|

|--13-11-----------| x16

|--------14-13-14--|

|------------------|

|------------------|



Estrofas y Base de Solo

Do# La Fa# Mi

|-------------------------------------------------------|

|-------------------------------------------------------|

|--6-------6-----6-----6-----6--------------------------|

|--6-------6-----6-----6-----6-7-------7-----4-2--------|

|--4-4-4-4-4-4-4-4-4-4-4-4-4-4-7-------7-----4-2--------|

|------------------------------5-5-5-5-5-5-5-2-0-0-0-0--|

PM ..... ... ... ... ..... ... .....



Do# La

Lo que parece ser real

Fa# Mi Do#

No se asemeja a la ficción

La Fa# Mi

Debo mostrarte el camino



Hay un intruso en tu interior

El que devora tu ambición

Debes estar siempre en guardia



http://www.coveralia.com/acordes/en-guardia-horcas.php

Intro x 8



No queda nada por vender

Ya te rentaron tu ilusión

Siempre hay carga en tu espalda



La lucha aún no termino

¿Qué hay que perder para ganar?

No hace falta que te desangres



Si Fa# Do# Si La

Hoy te asusta todo lo que vez



Solo

Base x 4

Intro x8



Tu identidad no es real

No hay compasión, no hay confusión

Debes encontrar tu camino



Hay que tirar esa pared

El que no enfrentas por temor

No hace falta que te desangres



Si Fa# Do# Si La

Si no lo haces ¿quién lo hará?



Intro x16

En guardia estas

Letra subida por: Anónimo

Discos en los que aparece este acorde: Horcas

El acorde de En Guardia de Horcas es una versión de la canción original realizada por colaboradores/usuarios de Coveralia.

¿Has encontrado algún error en esta página? Envíanos tu corrección del acorde