música
Buscador

Acorde de El Rey - Angeles Del Infierno

Letra de El Rey

intro 

X7

E|------------------|-----------------|

B|----5-5-----5-5---|-----------------|

G|----5-5-----6-6-o-|-----------------|

D|----5-5-----7-7-o-|-----------------|

A|-3----------------|-3---------------|

E|---------5--------|-----------------|





Yo se bien que estoy afuera

C A C

Pero el dia que yo me muera

E|------------------------------------|

B|-----3-----------5----------------3-|

G|-----3-----------6----------------3-|

D|-----3-----------7----------------3-|

A|-3--------------------------3-------|

E|-----------5------------------------|





Se que tendras que llorar llorar

E|------------------------------------|

B|-------3-------------5------------3-|

G|-------3-------------6------------3-|

D|-------3-------------7------------3-|

A|-3--------------------------3-------|

E|--------------5---------------------|



Llorar y llorar llorar y llorar

E|------------------------------------|

B|-------5-------------5------------5-|

G|-------6-------------5------------6-|

D|-------7-------------5------------7-|

A|--------------3---------------------|

E|-5--------------------------5-------|



Diras que no me quisistes pero vas

E|------------------------------------|

B|-------3-------------5------------3-|

G|-------3-------------6------------3-|

D|-------3-------------7------------3-|

A|-3--------------------------3-------|

E|--------------5---------------------|



A estar muy triste y asi te vas a quedar

E|------------------------------------|

B|-------5-------------5------------5-|

G|-------6-------------5------------6-|

D|-------7-------------5------------7-|

A|--------------3---------------------|

E|-5--------------------------5-------|





http://www.coveralia.com/acordes/el-rey-angeles-del-infierno.php

D5

Con dinero o sin dinero



Hago siempre lo que quiero

B5

Y mi palabra es la ley

A5

No tengo trono ni reina



Ni nadien que me comprenda

F5

Pero sigo siendo el rey



D5

Una piedra en el camino



Me enseno que mi destino

B5

Era rodar rodar y rodar

A5

Un dia me dijo un arriero



Que no hay que llegar primero

F5

Pero hay que saber llegar





D5

Con dinero o sin dinero



Hago siempre lo que quiero

B5

Y mi palabra es la ley

A5

No tengo trono ni reina



Ni nadien que me comprenda

F5

Pero sigo siendo el rey



D5

Con dinero o sin dinero



Hago siempre lo que quiero

B5

Y mi palabra es la ley

A5

No tengo trono ni reina



Ni nadien que me comprenda

F5

Pero sigo siendo el rey



Letra subida por: Anónimo

Discos en los que aparece este acorde: Todos Somos Angeles

El acorde de El Rey de Angeles Del Infierno es una versión de la canción original realizada por colaboradores/usuarios de Coveralia.

¿Has encontrado algún error en esta página? Envíanos tu corrección del acorde