música
Buscador

Acorde de El Origen - La 25

Letra de El Origen

intro : LA
1)---------------------------)
2)-5---------5---------5V--)
3)-5---5----5----5----5V--)
4)---7-5-7----7-5--7------)
5)---------------------------)-

A5
Es el origen de donde vengo
Llegue hasta aqui con lo que tengo
E5
Voy a llevarte, si tu me dejas,
                             A5
Voy a enviciarte con lo que quieras.

A5
Esto es asi, me chupa un huevo
si me preguntan cuanto me queda
E5
En el infierno me voy quemando
                           A5
Y el ROCANROL me esta matando

D5 - C5 - A5 x2

A5
Algunos pelos, se van volando
pero yo siempre voy despeinado
E5
Es tu espejo "Mother Fackyu"
                                A5
Yo me creia que tenia diez años menos

A5
Mis ceremonias me han avanzado,
por ser un chico desorbitado.
E5
Me voy riendo de mi presente,
                      A5
de mi futuro, de mi pasado


D5 - C5 - A5 X2

E5
Es que el final se va acercando
E5
y este rock me esta matando
E5
Y en el infierno me voy quemando

 D5                              A5
Y por toda la vida voy diciendo adios
D5                           A5
Entonces antes , vamos dame dios
D5
Boogie y Blues y Rocanrol sera
                       E5
En el origeen ...


SOLO EN :  A5 - E5 X1

Intro : X 4


Es el origen de donde vengo
Llegue hasta aqui con lo que tengo
E5
Voy a llevarte, si tu me dejas,
                          A5
Voy a enviciarte con lo que quieras.

A5
Esto es asi, me chupa un huevo
si me preguntan cuanto me queda
E5
En el infierno me voy quemando,
                         A5
Y el ROCANROL me esta matando

D5 - C5 - A5 x2

E5
Es que el final se va acercando
E5
y este rock me esta matando
E5
Y en el infierno me voy quemando

 D5                               AA
Y por toda la vida voy diciendo adios
D5                             A5
Entonces antes , vamos dame dios
D5
Boogie y Blues y Rocanrol sera
                       E5
En el origeen ...


Final

una guitarra hace con SLIDE :

la tercera hace base como estan las notas arriba de lo que hace el slide !


   D5        C5 -A5     D5       C5-A5     D5        C5    D5       C5 - E5
2)-------------------/------------------/------------------------------------
3)-5/7--5/7---5------/--5/7--5/7--5/14--/--5/7--5/7---5---5/7--5/7--5----7/9-
4)-5/7--5/7---5---7--/--5/7--5/7--5/14--/--5/7--5/7---5---5/7--5/7--5----7/9-
5)----------------7--/------------------/------------------------------------


  D5 - D5 -C5 - A5  D5 -  D5- C5 - A5   D5 -  D5 - C5 -  D5 - D5 - C5 -  A5-
2)-----------------/------------------/------------------------------------
3)-5/7--5/7--5-----/--5/7--5/7--5/14--/--5/7--5/7--5----5/7--5/7---5-------
4)-5/7--5/7--5--7--/--5/7--5/7--5/14--/--5/7--5/7--5----5/7--5/7---5---5/7-
5)--------------7--/------------------/------------------------------------

La segunda guitarra hace :

2)-------------/-------------/         2/--------------------
3)-2------2----/-------------/    X2   3/-2-2-----2-2-------
4)-0-3-4-0-3-4-/-2------2----/         4/-0-0-----0-0-------
5)-------------/-0-3-4-0-3-4-/         5/-----3---------3-2-
6)------------/--------------/         6/------------------0-

2/-------------------/-------------------/------------------
3/-2-2---------------/-2-2---------------/--2-2---2-2-----
4/-0-0----2----------/-0-0----2----------/--0-0---0-0---2-
5/------3-0-3-4-0-3--/-------3-0-3-4-0-3-/-------3-----3-0-
6/-------------------/-------------------/------------------


Letra subida por: Anónimo

Discos en los que aparece este acorde: El Origen

El acorde de El Origen de La 25 es una versión de la canción original realizada por colaboradores/usuarios de Coveralia.

¿Has encontrado algún error en esta página? Envíanos tu corrección del acorde