música
Buscador

Acorde de El Ignorante - Callejeros

Letra de El Ignorante

Al ser un reggae se recomienda hacer todas las notas con cejilla



[INTRO]



e|-------4----5---5-------5-

B|-------5----7---5-------5-

G|-------6----7---6-------6-

D|-------6----7---7-------7-

A|-0-2-4-4--4-5---7-------7-

E|----------------5---9-7-5-



e|-4h5-4---------------------9--9--9--10-10-10-|

B|------5------------0-2-3~--10-10-10-9--9--9--|

G|-------6~----22------------------------------|

D|-----------22--4~----------------------------|

A|---------------------------------------------|

E|---------------------------------------------|



[VERSO]



A E

Cuando ignoramos, ignoramos hasta la ignorancia

D Bm

ignorancia que volvió a lastimar

A E

el ignorante soporta maldades

D Bm

falsedades que ignoran la verdad



C#m D

Lo van boqueando los otros ignorantes

C#m D

que no entienden del perdón como cobardes

A E Bm D

y el corazón junta valor ignorando lo que tiene que ignorar



A E

Valorando la libertad

D Bm

mas unidos que cautivos podemos aguantar

A E

la sociedad nos va a ignorar

D Bm

corrompiendo así nuestra realidad



C#m D

Aprendiendo de toda esta ignorancia

C#m D

ignoramos lo que va a venir

A E Bm D

sin ignorar la honestidad que por suerte enseña un poco mas



[ESTRIBILLO]



A D

Ignorar a los que ignoran es igual odiar

D7 A

tu fusil o mi venganza no demuestran dignidad

C#m D

no ignorar a Jesús, a una paloma

C#m D

no ignorar al policía que traiciona

A E Bm D A

ignorar tu identidad es ignorar mi alma sin paz



F#m E

Así es que ignoro aquel que lo crea

F#m E

http://www.coveralia.com/acordes/el-ignorante-callejeros.php

a aquel que mi dolor no vea ni quiera ver

Bm C#m Bm-C#m-D C#m

si en la luna y sus estrellas o en el sol encuentro fuerzas

G#m F#m

y en tus manos el amor

G#m F#m E

y en tu abrazo encuentro eso que llaman Dios



E-F#m-E-F#m-G#m-A



e|-----2---0------2-4-5-|

B|-----2---0------2-4-5-|

G|-----2---1------2-4-6-|

D|-----4---2------4-6-7-|

A|-----4---2------4-6-7-|

E|-0-1-2---0--0-1-2-4-5-|



[REPITE INTRO]



e|-4h5-4------------------------9--9--9--10-10-10-|

B|------5---------------0-2-3~--10-10-10-9--9--9--|

G|-------6~----22---------------------------------|

D|-----------22--4-(2)----------------------------|

A|------------------------------------------------|

E|------------------------------------------------|



[VERSO]



A E

Siendo ignorante dentro de un pueblo ciego

D Bm

sin mas valor que la televisión

A E

hay presidentes lazarillos que prometen cielos

D Bm

y luego cumplen con su propia salvación



C#m D

Ignorar nuestro presente, nuestra historia

C#m D

ignorar cuando nos mienten y nos roban

A E Bm D

ignorar nuestra ignorancia fue lo que nos trajo acá



C#m D

A sufrir hasta sangrar las consecuencias

C#m D A

de ser juez y parte de nuestra ignorada inconsciencia

E Bm D

hasta el momento en que el destino fue nuestro final



[Rapeo en base A-E-D-Bm hasta terminar en A]



Sentencia de una idea sin felicidad

repetida secuencia de la ciencia de perder

las cosas importantes de verdad

saber o no saber? vos no sos el que lo va a elegir

pero ausente de tus propios sueños no se puede vivir, no!

ni tampoco te podes caer bajo el pie del que saquea

sembrando el miedo como sistema

durmiendo al anhelo con la tragedia haciendo carceles en tu cabeza

ser ignorante no te exime pero tampoco te convierte en un traidor

el ignorante no solo ignora su ignorancia también ignora su perdón







Letra subida por: Anónimo

Discos en los que aparece este acorde: Disco Escultura

El acorde de El Ignorante de Callejeros es una versión de la canción original realizada por colaboradores/usuarios de Coveralia.

¿Has encontrado algún error en esta página? Envíanos tu corrección del acorde