música
Buscador

Acorde de El Genio Del Dub - Los Fabulosos Cadillacs

Letra de El Genio Del Dub

 e------------------------------------------ 

B-----------------------5--8---8-8-8-8-8/17

G------------------5--7--------------------

D------------5--7--------------------------

A--5-5-5-5-7-------------------------------

E------------------------------------------





e-------------------------------------------------

B-10-10-10-10-10-10-10-10-10/--------5/17-----5/17

G-------------------------------------------------

D-------------------------------------------------

A-------------------------------------------------

E-------------------------------------------------



8vas

e-17-17-17-17-17-17-17-17-17-17-17/-----20-20-20-20-20---18

B----------------------------------------------------------

G----------------------------------------------------------

D----------------------------------------------------------

A----------------------------------------------------------

E----------------------------------------------------------



http://www.coveralia.com/acordes/el-genio-del-dub-los-fabulosos-cadillacs.php

Am (La m) G (SOL) Em (Mi m)

e------------ e----5-----------3----------7

B-16^-----16^ B----5-----------3----------8

G------------ G----5-----------4----------9

D------------ D----7-----------5----------9

A------------ A----X-----------X----------7

E------------ E----X-----------X----------x

Am

entra en el balcon del genio del dub

G

entra en el balcon del genio del dub cuando

Am

hablas de violencia dice basta ya

G

y cuando hablas de guera dice basta ya

Am

y cuando hablas del hambre dices basta ya

G

por que nada de eso te puede elevar por que

Am Em

nada de eso te puede elevar (trompetas)

Letra subida por: Anónimo

El acorde de El Genio Del Dub de Los Fabulosos Cadillacs es una versión de la canción original realizada por colaboradores/usuarios de Coveralia.

¿Has encontrado algún error en esta página? Envíanos tu corrección del acorde