música
Buscador

Acorde de El Fantasma Enamorado - Pate De Fua





Intro:

Cm

D|---| |-----------|

A|-3-| |-0-2-3(Cm)-|Bajeo que cae en Cm

E|---| |-----------|x4





Cm Fm Cm G G7

e|------3--3------------------------------|

B|-4--4---4-6-------------4---4-4-2-0-1---|

G|-------------5-1---1--1----5------------|

D|----------------------------------------|

A|----------------------------------------|

E|----------------------------------------|x4





Cm Fm Cm Fm Cm G Cm

e|------------------------------------------|

B|-7--8--6---8-7-8--6---8-7/8--4-3-4-4--1---|

G|------------------------------------------|

D|------------------------------------------|

A|------------------------------------------|

E|------------------------------------------|x2



Cm

e|-3---------|(De esto no estoy muy seguro pero creo que así va)

B|---4-3-4---|

G|---------5-|

D|-----------|x4

Cm

D|-----------|

A|-0-2-3(Cm)-|Al mismo tiempo que lo de arriba

http://www.coveralia.com/acordes/el-fantasma-enamorado-pate-de-fua.php

E|-----------|x4





Cm Fm

Cuando vuelan murciélagos

Cm G G7

Por los cielos en la oscuridad

Cm Fm

Y la Luna sobre el panteón

Cm G G7

Cubre a los que descansan en paz



Cm Fm

De una tumba suele asomar

Cm G G7

Un fantasma que busca el amor

Cm Fm

De la hermosa y angelical

Cm G G7

Joven hija del enterrador



G# G Cm Fm

Cuentan que el sale a vagar

Cm ********



en lugar de:



A|---------|

E|-8-6-4-3-|

-->********



Cm (Cm Fm Cm-G-Cm-G)x2

Letra subida por: Anónimo

Discos en los que aparece este acorde: El Tren De La Alegria

El acorde de El Fantasma Enamorado de Pate De Fua es una versión de la canción original realizada por colaboradores/usuarios de Coveralia.

¿Has encontrado algún error en esta página? Envíanos tu corrección del acorde