música
Buscador

Acorde de El Duende Del Arbol - Callejeros

Letra de El Duende Del Arbol





INTRO:

Arpegio en D(alternando con Dsus4)

Am(con cejilla en el 5to traste)



(con base de intro)

En sus ojos nunca pude encontrar maldad,

Pero a veces para no morir hay que matar.

Todo fue esa noche en que ciego y borracho nos quiso asustar

Pero un golpe sin suerte dejó a su cuchillo

clavado en su mal.

G# C C# C

Así fue que al duende del árbol tuvimos que asesinar,

B Bb G

Matar y cortar, y cortar.



Su cuchillo había destripado a dos duendes ya

Pero en estas historias nunca nadie puede celebrar.

Así fue que al duende del árbol en partes

Tuvimos que enterrar, tapar y olvidar, y olvidar.



D G Em Bb

Cuál es esa ley preguntó el duende al sol

D G Em A

que aunque mate siempre, siempre obtendré el perdón

D D# Em C A

Pero aquella ley esa noche la rompí yo



(Este solo lo hace Juancho con el

acordeón pero yo lo saqué con la viola)



http://www.coveralia.com/acordes/el-duende-del-arbol-callejeros.php

G-2-------------2-2--2------------2-0-2-----2-2---------2------

B---0-1-0-3-1-0-------0-1-0-3-1-0------0-1-0---0-1-3-1-0-1-0---

e--------------------------------------------------------------



G-2-------------2-2--2------------2-0-2-----2-2---------2----2-1-

B---0-1-0-3-1-0-------0-1-0-3-1-0------0-1-0---0-1-3-1-0-1-0-----

e----------------------------------------------------------------



G-1-2-1-0-------------------------3--

B--1-----1-1-2-2-2-2-2-1-1-0---1-0--- G

e-----------------2------------------



Solo el cielo quiso ver lo que quedó de él

Nuestro miedo se hizo odio en un instante cruel.

Así fue que al duende del árbol

De un tajo le pudimos dar

Un poquitito de paz, de paz.



Cuál es esa ley preguntó el duende al sol

que aunque mate siempre, siempre obtendré el perdón?

Pero aquella ley esa noche la rompí yo





D# A# A

Y ahora tengo a este duende sepultado,

Gm

Y ya sin perdón



Termina en Gm





Letra subida por: Anónimo

Discos en los que aparece este acorde: Presion

El acorde de El Duende Del Arbol de Callejeros es una versión de la canción original realizada por colaboradores/usuarios de Coveralia.

¿Has encontrado algún error en esta página? Envíanos tu corrección del acorde