música
Buscador

Acorde de El Bus - Yelsid

Letra de El Bus



D



E ----5-----5-

B ----7-----7-

G ----7-----7- X (2)

D -------7----

A --5---------

E ------------



Gm



E ----3-----3-

B ----3-----3-

G ----3-----3- X (2)

D ------------

A -------5----

E --3---------



F



E ----1-----1-

B ----1-----1-

G ----2-----2- X (2)

D ------------

A -------3----

E --1---------



A#



E ----1-----1-

B ----3-----3-

G ----3-----3- X (2)

D -------3----

A --1---------

E ------------



http://www.coveralia.com/acordes/el-bus-yelsid.php

E ----------

B ----------

G ----------

D ---------- ADORNO (Opcional)

A -1-0---5--

E -----3----





D

Creí que eras distinta



Gm

Pensaba que eras Buena



F A# ADORNO(Opcional)

Por ti todo deje



D

Y no valió la pena

Gm

Mía y a la vez ajena

F A# ADORNO(Opcional)

No quiero volverte a ver





Y voy a prometerme

Nunca más llorar

Hoy me verán reír

Y pa' que lo sepas

Serás tu quien te vas

Si no me quieres ver .........





D Gm F A#



(Prácticamente toda la canción lleva el mismo circulo)

Letra subida por: Anónimo

Discos en los que aparece este acorde: La Voz ,

El acorde de El Bus de Yelsid es una versión de la canción original realizada por colaboradores/usuarios de Coveralia.

¿Has encontrado algún error en esta página? Envíanos tu corrección del acorde