música
Buscador

Acorde de El Arte De Amar - Chayanne

Letra de El Arte De Amar

Intro: G - D - Em - C



E-----------------------------------------------------

B-12-12-12-12-10-10-13-13-12-10----10-12-10-----------

G-------------------------------12----------12-12-----

D-----------------------------------------------------

A-----------------------------------------------------

E-----------------------------------------------------



Verso:

G D

Bella es la luz de tu mirada

Em C

Y dulce es tu respirar

Am G

Sábanas corren de aquí para allá

C Am D

Dando vueltas los besos se dan.

Bm E

No hay testigos que puedan decir que nos vieron

Am Am/B Cm

El secreto siempre es confidencial.

G Dmaj7

No hay dudas, ni miedo.



Coro:

C D G

Son los besos del arte de amarte

C D G

Besos del arte de amarte

C D G

Besos del arte del amor



Verso:



G D

Rayo de luz del nuevo día

Em C

No vengas, ahora no

Am G

Faltan abrazos de alegría

C Am D

No te asomes a mi balcón

Bm E

Tengo deuda de besos con esta belleza,

Am Am/B Cm

Ven mañana, ven a hacerme el favor.

G Dmaj7

Me sobran los besos.



Coro:

C D G

Son los besos del arte de amarte

http://www.coveralia.com/acordes/el-arte-de-amar-chayanne.php

C D G

Besos del arte de amarte

C D G

Besos del arte del amor



Otro:



D# G#

Y descienden los besos uno por uno,

D# G#

Se perdieron toda pena y pudor

Cm F

Con la mano en el pecho te quiero, lo juro

G

Sumergidos en un dame y te doy



Verso:

G D

Bella es la luz de tu mirada

Em C

Y dulce es tu respirar

Am G

Sábanas corren de aquí para allá

C Am D

Dando vueltas los besos se dan.



Solo de teclado: Bm - E - Am - Am/B - Cm



G Dmaj7

Me sobran los besos.



Coro:

C D G

Son los besos del arte de amarte

C D G

Besos del arte de amarte

D E A

Besos del arte de amarte

D E A

Besos del arte de amarte

D E A

Besos del arte del amor



Solo Final: A - E - F#m - A



E-----------------------------------------------------

B-14-14-14-14-12-12-15-15-14-12----12-14-12-----------

G-------------------------------14----------14-14-----

D-----------------------------------------------------

A-----------------------------------------------------

E-----------------------------------------------------

Letra subida por: Anónimo

Discos en los que aparece este acorde: Provocame

El acorde de El Arte De Amar de Chayanne es una versión de la canción original realizada por colaboradores/usuarios de Coveralia.

¿Has encontrado algún error en esta página? Envíanos tu corrección del acorde