música
Buscador

Acorde de El Alma De Los Arboles - Eros Ramazzotti

Letra de El Alma De Los Arboles





Intro: C# - C#sus4 D#m F# Bsus2) x4



C# C#sus4 D#m F# Bsus2



e||--1---2---|-2-2---2-2-2-2-2-2-2-|-2---2-2-2---2---2-----2-2-2-2-2-2--||

B||--2---2---|-4-4---4-4-4-4-4-4-4-|-2---2-2-2---2---2-----2-2-2-2-2-2--||

G||--1---1---|-3-3---3-3-3-3-3-3-3-|-3---3-3-3---4---4-----4-4-4-4-4-4--||

D||----------|---------------------|-4---4-4-4---4---4-----4-4-4-4-4-4--||

A||----------|---------------------|-4---4-4-4---2---2-----2-2-2-2-2-2--||

E||----------|---------------------|-2---2-2-2--------------------------||



NOTA: EN LA TERCERA VEZ DEL INTRO AL FINAL SE ALCANZA A

ESCUCHAR UN ARREGLO ASI:



B||---------------||

G||--3-4-3h4------|| Y COMIENZA EL INTRO NUEVAMENTE

D||-----------6-4-||



ESTROFA #1

B F# B F#

El alma de los árboles se mueve y con las nubes va,

B F# D#m C#sus4

Respira sobre mí al atardecer Un canto lejanísimo

B F# B F#

Los ríos llega a acariciar en busca de la vida

B F# D#m C# B Bsus2

Y sus porqués y esta noche me ha llevado junto a él.





CORO #1:



F# C# D#m B F# C# D#m B

Serás los años más verdes, serás quien ya no está;

F# C# C#m6 D#7 G#m C#sus4 C#

Cuando volvía a casa calle arriba, yo era un niño

F# C# D#m B F# C# D#m B

Serás los días pasados, serás quien ahora va;

F# A# D#m B F# C# B (SE TOCA INTRO)

El alma de los árboles siguiéndome con la edad.



ESTROFA #2



B F# B F#

Yo hace tiempo te perdí por este ansia de crecer

B F# D#m C# C#sus4

http://www.coveralia.com/acordes/el-alma-de-los-arboles-eros-ramazzotti.php

Tirando al blanco a mi ingenuidad, que jamás

B Bsus2

Dinero alguno pagará.



CORO #2:



F# C# D#m B F# C# D#m B

Serás los años más verdes, serás quien ya no está;

F# C# C#m6 D#7 G#m C#sus4 C#

Los días sin nostalgia que pasaban yo era un niño.

F# C# D#m B F# C# D#m B

Serás el tiempo que va de aquí a la eternidad,

F# A# D#m B F# C# F#

El alma de los árboles siguiéndome con la edad.



PUENTE:

A E F#m7 C#m A

Lo sé, es un sueño no me despiertes que estoy bien donde estoy;

E ( F# - C# - C#sus4 - B - F# - C# - D#m - B )

Te necesito al menos hoy

F# C# C#m6 D#7 G#m C#sus4 C#

Gracias a ti esta noche vol veré a ser niño.



CORO FINAL:



F# C# D#m B F# C# D#m B

Serás los años más verdes, serás mis ojos tu;

F# A# D#m B F# C# B

El alma de los árboles siguiéndome con la edad

F# C# D#m B F# C# D#m B

Serás el tiempo que va de aquí a la eternidad,

F# A# D#m B F# C# B F#

El alma de los árboles (siguiéndome con la edad) x2



ACORDES UTILIZADOS:



C# C#sus4 E D#m F# Bsus2 F#m7 G#m D#7 C#m6 A# A C#m B



e||-1-|-2-|-0-|-2-|-2-|-2-|---|--4--|---|-0-|-1-|-0-|---|-2-||

B||-2-|-2-|-0-|-4-|-2-|-2-|-2-|--4--|-4-|-2-|-3-|-2-|-5-|-4-||

G||-1-|-1-|-1-|-3-|-3-|-4-|-2-|--4--|-6-|-3-|-3-|-2-|-6-|-4-||

D||---|---|-2-|---|-4-|-4-|-2-|--6--|-5-|-2-|-3-|-2-|-6-|-4-||

A||---|---|-2-|---|-4-|-2-|-4-|--6--|-6-|---|-1-|-0-|-4-|-2-||

E||---|---|-0-|---|-2-|---|-2-|--4--|---|---|---|---|---|---||





Letra subida por: Anónimo

Discos en los que aparece este acorde: Estilo Libre

El acorde de El Alma De Los Arboles de Eros Ramazzotti es una versión de la canción original realizada por colaboradores/usuarios de Coveralia.

¿Has encontrado algún error en esta página? Envíanos tu corrección del acorde