música
Buscador

Acorde de El Agite - Horcas

Letra de El Agite

intro 1:



g:---------------------

d:---------------------

a:---------------------

e:--0-1-2-1-0----------



repite 5 veces





intro 2:



-----------------------

-----------------------

----------2------------

--1-0-2-0--------------

este pedaso se repite 3 veces





-----------------------

-----------------------

-----------------------

--0-1-2-1-0------------

la intro 2 se repite 3 veces





parte 1:



---------------------------

---------------------------

---------------------------

--1-0-0-2-0----------------



---------------------------

---------------------------

---------------------------

--0-1-2-1-0----------------

esta vendria hacer la parte de los versos





parte 2:

http://www.coveralia.com/acordes/el-agite-horcas.php



esta es la parte del estrbillo



------------------------------------------------------------------

--------------------------------------------------7-7-7-7-7-7-7-7-

--4-4-4-4-4-4-4-4-7-7-7-7-7-7-7-7-9-9-9-9-9-9-9-9-----------------

------------------------------------------------------------------

se repite 4 veces



-intro 2 de nuevo-



-parte 1- -estos se repiten-



-parte 2-



parte 3:



------------------------------

------------------------------

------------------------------

--1-3-4--1-3-4--1-3-4--4-3-2--

esta parte el bajo acompaña la guitarra.

el bajo sigue y la guitarra hace el punteo.





ahora empiesa la parte 2 denuevo per asi:



-----------------------------------------------------

----------------------------------7-7-7-7-7-7-7-7----

--7-7-7-7-7-7-7-7-9-9-9-9-9-9-9-9--------------------

-----------------------------------------------------



esto lo hace una sola vez

y despues empieza normal





el final es igual ala intro 2





Letra subida por: Anónimo

Discos en los que aparece este acorde: Demencial , La Maldicion Continua

El acorde de El Agite de Horcas es una versión de la canción original realizada por colaboradores/usuarios de Coveralia.

¿Has encontrado algún error en esta página? Envíanos tu corrección del acorde