música
Buscador

Acorde de Edible Autopsy - Cannibal Corpse

Letra de Edible Autopsy

Riff 1, this x3-           then this x1

-----------------------|--------------------------

-------------------5---|-------------5-4-3--------

-2p1---------5p4---5---|-2p1---------5-4-3--------

-----0-3p2-0-----0-3---|-----0-3p2-0-3-2-1--------



Rhythm Figure 1

-----------------------------------------

-------7-6-------------------------------

-9-8-7-5-4---5-4-------------------------

-7-6-5-----0-3-2-------------------------



Rhythm Figure 2

-----------------------------------------

-------4---------3-----------------------

-------2---------1-----------------------

-3-2-1---0-3-2-1---0---------------------



Verse

---------------------------------------------

-------------5-------------------------------

-6-----7-----3--------------3----------------

-4-0-0-5-0-0---000000000000-1-0--------------



Post-verse thingy

------------------------------------------------------------------

-------------5------------------------------5---------------------

-6-----7-----3--------------3---6-----7-----3-----5---6-6---------

-4-0-0-5-0-0---000000000000-1-0-4-0-0-4-0-0---3-4---4-4-4---------



Rhythm Figure 3

-------------------------------------------------------------

-------------------------------------------------------------

-------------3-------------3-------------3---------3---------

-000-000-000-1-000-000-000-1-000-000-000-1-000-000-1---------



Rhythm Figure 4a

-----------------------------------------

-----5-------8---------------------------

-5-6-3---5-6-6---------------------------

-3-4---0-3-4---0-------------------------

http://www.coveralia.com/acordes/edible-autopsy-cannibal-corpse.php



Rhythm Figure 4b

-----------------------------------------

-----5-----------------------------------

-5-6-3---5-4-3---------------------------

-3-4---0-3-2-1-0-------------------------



Rhythm Figure 5a

----------------------------------------------------------------------------------------

-------------------------------------------------------3--------------------------------

---------------------3-----3---------------------3-----1---------------------3-----3----

-0-0-0-0-0-0-0-0-0-0-1-0-0-1-000-000-000-000-0-0-1-0-0---0-0-0-0-0-0-0-0-0-0-1-0-0-1----



-----------------------------------------

-----------------------------------------

---------------------6-----3-------------

-000-000-000-000-0-0-4-0-0-1-------------



Rhythm Figure 5b

-------------------------------------------------------------------------------------------

--------------------------------------------------------3----------------------------------

---------------------3-----3----------------------3-----1----------------------3-----3-----

-0-0-0-0-0-0-0-0-0-0-1-0-0-1--0-0-0-0-0-0-0-0-0-0-1-0-0----0-0-0-0-0-0-0-0-0-0-1-0-0-1-----



-----------------------------------------

-----------------------------------------

---------------------6-----3-------------

-0-0-0-0-0-0-0-0-0-0-4-0-0-1-------------



Rhythm Figure 5c

-------------------------------------------------------------------------------------------

--------------------------------------------------------3----------------------------------

---------------------3-----3----------------------3-----1----------------------3-----3-----

-000-000-000-000-0-0-1-0-0-1--000-000-000-000-0-0-1-0-0----000-000-000-000-0-0-1-0-0-1-----



-----------------------------------------

-----------------------------------------

---------------------6-----3-------------

-000-000-000-000-0-0-4-0-0-1-------------

Discos en los que aparece este acorde: Eaten Back To Life

El acorde de Edible Autopsy de Cannibal Corpse es una versión de la canción original realizada por colaboradores/usuarios de Coveralia.

¿Has encontrado algún error en esta página? Envíanos tu corrección del acorde