música
Buscador

Acorde de Dreaming In The Wind - Mike Oldfield

Letra de Dreaming In The Wind

INTRO: Am G Am Em 



----------------------------------------------------------

00:13

Clean Electric Guitar

SOLO

*****

----------------|------------|---------------|-------------------|-muted---

--s------h-p-s--|----s-------|---------------|------------h-p-p--|---------

-7\9-7--7-9-7\5-|---5\7--5-4-|-5-7-7-5-5-----|-5-5-5-5-4-2-4-2-0-|-9-9-7-9-

----------------|-7----------|-----------7-7-|-------------------|---------

----------------|------------|---------------|-------------------|---------

----------------|------------|---------------|-------------------|---------



00:35

-muted---|-----------------|--------------|-----------------|------

---------|-----------------|--------------|--------------s--|-10-8-

-7-5-7-7-|--s--7-7-7-5-5---|-5------------|-7-7-7-7-7-5-7\9-|------

---------|-5\7-----------7-|---7-7--5-7-7-|-----------------|------

---------|-----------------|--------------|-----------------|------

---------|-----------------|--------------|-----------------|------





-----------------------------|-----------------|------|---------

--h----s----------5----------|----------h-p----|-10-8-|-b-rp----

-7-9--2\9-9-9-9-7-7--7---5-7-|-7-7-7-7-5-7-5-9-|------|-7---5---

-----------------------7-----|-----------------|------|-------7-

-----------------------------|-----------------|------|---------

-----------------------------|-----------------|------|---------



00:50 b b

-8---10-10-8----8-8-

-------------10-----

--------------------

--------------------

--------------------

--------------------





VERSE



Am G

You may see a white bird in a clear blue sky

Am Em

I'm dreaming in the wind flying high

Am G

There's a whispering sound in the air around

Am Em

I'm dreaming in the wind As the sun goes down

Dm Am

You may see a bight star In a clear night sky

Dm Am

I'm dreaming in the wind As the earth roles by

Dm Am

There's a silver light as the bird takes flight

Fm G

I'm dreaming in the wind As the day turns to night





verse 2



Am G

You may hear the wind sigh on a mountain high

Am Em

I'm dreaming in the wind I belong to the sky

Am G

On a distant shore there's no one more

Am Em

I'm dreaming in the wind I'm at heaven's door

Dm Am

There's a new sunrise in the crimson skies

Dm Am

I'm dreaming in the wind As the white bird cries

Dm Am

See the silver light as the bird takes flight

Fm G

I'm dreaming in the wind As the day turns to night







Dm G

Dreaming in the wind

C

Dreaming

Fm G

Dreaming in the wind

Dm G

Dreaming in the wind

C

Dreaming

Dm G

Dreaming in the wind





03:20

SOLO - Am Em X6

***** Dm Am X3 Fm G



--------------------|----------------|----------------|-------------

--s----5-----h-p-s--|----------------|----------------|-------------

-7\9-9---7--7-9-7\5-|---7-7-7-5-4----|-7-7-7-5-5------|-5-5-5-4-----

--------------------|-7------------5-|------------7-7-|---------7-5-

--------------------|----------------|----------------|-------------

--------------------|----------------|----------------|-------------



http://www.coveralia.com/acordes/dreaming-in-the-wind-mike-oldfield.php

03:34

----------------------|-----s------------|------------------s---------

--s------------h-p-s--|---12\13-12-10-12-|----------10-12-13\15-13-13-

-7\9-9-9-7--7---9-7\5-|-9----------------|-12-12-12-------------------

----------------------|------------------|----------------------------

----------------------|------------------|----------------------------

----------------------|------------------|----------------------------





----------------------h--p------|-----------------------|---s--------s---

----------13-13-12-10--12-10----|------h-----s----------|-12\15-13-12\17-

----12-14--------------------12-|-9-9-9-12-12\14-----14-|----------------

--12----------------------------|-----------------14----|----------------

-x------------------------------|-----------------------|----------------

--------------------------------|-----------------------|----------------





---------------------------|-------------h---------------

-20-19-17------------b-r---|-----------13-15-13----------

----------19-17-16--16--14-|----14-16-----------16-14----

---------------------------|-14-----------------------17-

---------------------------|-----------------------------

---------------------------|-----------------------------



04:06

--------------------------b-------|----------------------------------

--b-17-17--b-17--b-17-20-20-------|---s------------------------------

-19-------19----19----------19-19-|-17\19-19-19-19-19-19-17-17-------

----------------------------------|-17\19-19-19-19-19----------19-19-

----------------------------------|----------------------------------

----------------------------------|----------------------------------



04:13 s

------------17---------------------|-------------------17----17\20-17--b---

----------b----20--b--------b------|---p-----------s------20----------20-20

---17-19-19-------19-19-17-19-19-19|-19-17----17-19\21---------------------

19---------------------------------|-------19------------------------------

-----------------------------------|---------------------------------------

-----------------------------------|---------------------------------------





-17--------17--------17--------------|-------------------------

----20--b-----20--b-----20--br---h---|---h--p-----------h----b-

-------19--------19--------19--17-19-|-17----17-------17-19-19-

-------------------------------------|-17-19-17-19-17----------

-------------------------------------|-------------------------

-------------------------------------|-------------------------



tricky

-------------------------------16-|-------16-------

------------------17----17-20-----|---h------16----

17-16----16-17-19----19-----------|-17-20-------17-

------19--------------------------|----------------

----------------------------------|----------------

----------------------------------|----------------



b p h p h p h p

-16-16-16-15-16-15----15-16-|-20-16----16-20-16----16-20-16-----16-20-16---

-------------------18-------|-------18----------18----------18-----------18

----------------------------|----------------------------------------------

----------------------------|----------------------------------------------

----------------------------|----------------------------------------------

----------------------------|----------------------------------------------



p p b A steady bend up

-20-19----------------19-|-19-15---p----19-15---p----19-

-------20----------20----|-------17-15--------17-15-----

----------19-17-19-------|------------------------------

-------------------------|------------------------------

-------------------------|------------------------------

-------------------------|------------------------------







Dm G

Dreaming in the wind

C

Dreaming

Fm G

Dreaming in the wind



04:45

---------------------------------

----10-13-12-------------------b-

-10----------12-----10--10-12-12-

----------------12---------------

---------------------------------

---------------------------------



Dm G

Dreaming in the wind

C

Dreaming

Fm G

Dreaming in the wind



then slight whammy

05:00 Harmonics couple of whammy bends

--------------------7-----

--------s-s-s-------7-----

-----5-5\7/5\7------------

---7----------------------

-8------------------------

--------------------------

Letra subida por: Anónimo

El acorde de Dreaming In The Wind de Mike Oldfield es una versión de la canción original realizada por colaboradores/usuarios de Coveralia.

¿Has encontrado algún error en esta página? Envíanos tu corrección del acorde