música
Buscador

Acorde de Dots And Dashes (Enough Already) - Silversun Pickups

Letra de Dots And Dashes (Enough Already)



Tuning is down a half-step

All chord names are relative to that tuning



Intro:



d#|--------|-------------|

G#|--------|-------------|

C#|--------|------2---0--|

F#|--12/2--|--2---2---2--|

A#|--12/2--|--2---0---3--|

D#|--10/0--|--0----------|



Verse/Bridge:



d#|-------------|-------------|

G#|-------------|--8---7---0--|

C#|------2---0--|--9---9---9--|

F#|--2---2---2--|--9---9---9--|

A#|--2---0---3--|--7---0---7--|

D#|--0----------|--0---x---8--|

E5 A5 C Em Asus CM7



Chorus:



d#|--x---x---x----x--|--x---x---x--|

G#|--8---7---13---5--|--5---3---7--|

C#|--9---7---14---5--|--5---4---7--|

F#|--9---0---14---5--|--5---4---0--|

A#|--7---5---12---3--|--3---2---5--|

D#|--x---x---x----x--|--x---x---x--|

Em D Am C C Bm D



Riff:



d#|--12--10------12--10------10--8-------------------|

G#|----------12----------12---------10--8-8/7-7/5-5--|

C#|--------------------------------------------------|

F#|--------------------------------------------------|

A#|--------------------------------------------------|

D#|--------------------------------------------------|



Verse 1:



E5 A5

So you want to mess with me? Caught me in a silent scream

C

Heat filling up my cheeks, not exactly what you think

E5 A5

See you in the room next door, your feet float above the floor

C

Dress torn above your knees like you've owned it for centuries



http://www.coveralia.com/acordes/dots-and-dashes--enough-already--silversun-pickups.php

(Riff)



Verse 2:



Em Asus

Dots and dashes on the wall, you tell me about the falls

CM7

Of kingdoms and champions you've seen a thousand times before

Em Asus

I show you my private things like my scrapbook of fantasies

CM7

You say I look a little too green for saving



Chorus:



Em D

I'm already bored, I'm already wise, I'm already worn



I'm already wondering "what am I?"

Am C

I'm already rough, I'm already lean



I'm already wanting to be obscene

Em D

I'm already cursed, I'm already dry



I'm already wondering "what am I?"

Am C

I've already learned a bit of sin



Enough already let me in



C Bm D C

We signal in a moon beam, I beg you to follow me

Bm D C

You say that I'll be surprised at the codes in the sunrise

Bm D C

But if I don't like what I see and my grip starts loosening

Bm D

The edge of the big reveal could be the end of the story



(Riff)



Bridge:



E5 A5 C E5

I just found innocence spinning around, spinning around

A5 C

Should I stand back and blow it all down, blow it all away?



(Chorus)



Letra subida por: Anónimo

Discos en los que aparece este acorde: Neck Of The Woods

El acorde de Dots And Dashes (Enough Already) de Silversun Pickups es una versión de la canción original realizada por colaboradores/usuarios de Coveralia.

¿Has encontrado algún error en esta página? Envíanos tu corrección del acorde