música
Buscador

Acorde de Disappear - Bullet For My Valentine

Letra de Disappear



Key: F



Tuning: Standard EADGBe



Chords used:

Dm - xx0231

Bb - x13331

F - 133211

C - x32010

Am - x02210





Intro: Dm--Bb--F-C x2, Dm--Dm-C-Bb- x2, Cool Riff



Guitar 2:

Dm Bb F C

e|----------------|---|---|---|

B|----------------|---|---|---|

G|-2--2-0--0--0-2-|-3-|---|-5-|

D|-3--3-2--2--2-3-|-3-|-3-|-5-|

A|----------------|-1-|-3-|-3-|

E|----------------|---|-1-|---|

x2



Dm Dm C Bb

e|---|---|---|---|

B|---|---|---|---|

G|-7-|-7-|-5-|-3-|

D|-7-|-7-|-5-|-3-| x2

A|-5-|-5-|-3-|-1-|

E|---|---|---|---|



Cool Riff:

e|-6-5------5---|

B|-----6-8----6-|

G|--------------|

D|--------------|

A|--------------|

E|--------------|





Verse 1:



Sing:

Dm C

Once again the same

Bb

things on your mind

Dm

Increasing pulse from

C Bb cool riff

what goes on inside

Dm C

Will you pay for what

Bb

you've done hatred

Dm C

Paybacks such a bitch her

Bb cool riff

vengeance haunts you





Refrain:



Sing:

C

So what's wrong tough

Bb

guy why the tears

C

You drove me to this

F Am

now you disappear





Chorus:



Growl:

Dm

Now all those acts repaid

Your turn to be afraid



Sing:

Bb

Not longer almost done

C

Oh god just what

have I become



http://www.coveralia.com/acordes/disappear-bullet-for-my-valentine.php



Interlude:

Dm Dm C Bb

e|---|---|---|---|

B|---|---|---|---|

G|-7-|-7-|-5-|-3-|

D|-7-|-7-|-5-|-3-| x2

A|-5-|-5-|-3-|-1-|

E|---|---|---|---|



Cool Riff:

e|-6-5------5---|

B|-----6-8----6-|

G|--------------|

D|--------------|

A|--------------|

E|--------------|





Verse 2:



Sing:

Dm C

Try to fight you only

Bb

make things worse

Dm C

Screams of agony

Bb Cool Riff

your final verse

Dm C

Now you're begging for

Bb

your life breathless

Dm C

All the times I bled

Bb Cool Riff

my vengeance takes you





(Repeat Refrain and Chorus)





Bridge:



Sing:

Bb

Your sweetest dreams

Dm

turn into tears

Bb

It's almost done

C

They're almost gone

Bb

I knocked these days

Dm

just fade away

Bb

It's almost done

C

They're almost gone





Guitar Solo: Dm--Bb--F--Am-- x2,



Interlude: Dm--C-Bb--F-Dm--C-Bb--C x2





Verse 3:



Sing:

C

So whats wrong tough

Bb

guy why the tears

C

You drove me to this

Bb

now you disappear

(Repeat)





(Repeat Chorus)





Outro: Dm-- x4, Dm(hold)





Letra subida por: Anónimo

El acorde de Disappear de Bullet For My Valentine es una versión de la canción original realizada por colaboradores/usuarios de Coveralia.

¿Has encontrado algún error en esta página? Envíanos tu corrección del acorde