música
Buscador

Acorde de Directo Al Corazon - Luis Miguel

Letra de Directo Al Corazon

 INTRO

(El Intro consta de unos juegos vocales y notas con

el violín Pero con la lira quedaría algo así)

C Am

E ---------------------------------------------------------------

A ---------------------------------------------------------------

D ---------------------------------------------------------------

G ----7-5----5-7---7-5-7----------7-5---5-7---7-5-7--------------

B 8-5-----5------5-------5------5-----5-----5-------5------------

E ----------------------------5----------------------------------



F G

E ---------------------------------------------------------------

A ---------------------------------------------------------------

D ---------------------------------------------------------------

G ------7--------------------------------------------------------

B --6-5--6---6-8---8-6-8----------8--------8-------8-6-5~--------

E 5--------------5-------5----7-5---5-7------5-7-5---------------



Estrofa 1

C Am

Dos helados más, mucho que decir

F G

Todo por hablar, nada que fingir





Estrofa 2

C

Chiquilla mía somos como el temporal

Am

que arrastra todo y no le importa a donde va,

F Dm

Nuestro cariño es un barco en altamar,

G

Navega libre sin temor a naufragar.





Coro

C

Cariño mío solo tu y yo, los dos

Am

Sin nada que ocultar, ni tu, ni yo

Dm

Lanzamos el amor, y tu y yo,

G

Directo al corazón , al corazón

C

Cariño mio solo tu y yo, los dos

Am

El pájaro y la flor, y tu y yo

http://www.coveralia.com/acordes/directo-al-corazon-luis-miguel.php

Dm

Lanzamos el amor, y tu y yo

G C

Directo al corazón al corazón...cariño mio somos dos.





Se repite la Intro



Estrofa 3

C Am

Salgo a caminar, tus ojos cambian el color de la ciudad,

Dm F

Tu me sonríes y la gente me da igual

G

Te quiero tanto que no entiendo nada mas





Coro

C

Cariño mio solo tu y yo, los dos

Am

Sin nada que ocultar, ni tu, ni yo

Dm

Lanzamos el amor, y tu y yo,

G

Directo al corazón , al corazón

C

Cariño mio solo tu y yo, los dos

Am

El pájaro y la flor, y tu y yo

Dm

Lanzamos el amor, y tu y yo

G C

Directo al corazón al corazón...cariño mío somos dos.





Se repite la Intro





Coro final

C

Cariño mío somos dos, y tu y yo,

Am

El pájaro y la flor y tu, y yo

Dm

Lanzamos el amor, y tu, y yo

G C

Directo al corazón, al corazón, cariño mio somos dos.



¿Has encontrado algún error en esta página? Envíanos tu corrección del acorde