música
Buscador

Acorde de Diferentemente - Caetano Veloso

Letra de Diferentemente

Intro:  



A7+ F#7/9

Acho que ouvi numa canção de Madonna

B7 Bm7 E7/9

"When you look at me, I don't know who I am"

C#m7

E desentendi

F#7/9 B7/6

Pois comigo, é você quem me olhando, detona

E7(13-)

A explosão de eu saber

D#7/4/A# G#7/6

Quem eu sou

C#7+ C7 F7 Bbm7

Eu nunca imaginei que nesse mundo alguma vez alguém soubesse quem é

E7 G#7+

Mas se você me vê, seus olhos são mais do que meus

F7/9

Pois amo

Bb7/9

E você ama

Bbm7 Eb7/9 E7/9

Então o indizível se divisa

A7+ D7/9 C#m7 F#7

E a luz de tantos céus inunda a mente

Bm7 Bm6 A F#7 Bm7 Bm6 A

E, no entanto, diferentemente de Osama e Condoleezza, eu não acredito em Deus





Solo:

A7+ F#7/9 B7 Bm7 E7/9 C#m7 F#7/9

E|--------------------------------------------------------------------|

B|---7-8-9---7-8-9---7-9-7|-------------------------------------------|

G|-9-------9-------9--------9-6-----6|-----6-----6|-7-9-6-7-9-|6-7-9--|

D|------------------------------7-9----7-9---7-9----------------------|

A|--------------------------------------------------------------------|

E|--------------------------------------------------------------------|

B7/6 E7(13-) D#7/4/A# G#7/6

E|--------------7------------7----------------------------------------|

B|------------9---10-9---7-9---10-9|--7-9|----------------------------|

G|-6-7-9|-6-7----------9------------9---------------------------------|

D|--------------------------------------------------------------------|

A|--------------------------------------------------------------------|

E|--------------------------------------------------------------------|

C#7+ C7 F7 Bbm7

E|--------------------------------------------------------------------|

B|-----7-6-------6-------6-------6-------6-6-6-6----------------------|

G|---------6-8-9---6-8-9---6-8-9---6-8-9---------6|-------------------|

D|--------------------------------------------------------------------|

A|--------------------------------------------------------------------|

http://www.coveralia.com/acordes/diferentemente-caetano-veloso.php

E|--------------------------------------------------------------------|

E7 G#7+ F7/9 Bb7/9

E|--------------------------------------------------------------------|

B|--9-9---7-8-9---7-8-9-9-9-9----9-8-6|-------------------------------|

G|-----9-------9-------------8|--------5-6-8-5------------------------|

D|-------- ------------------------------------6----------------------|

A|--------------------------------------------------------------------|

E|--------------------------------------------------------------------|

Bbm7 Eb7/9 E7/9 A7+ D7/9 C#m7 F#7

E|----------6-----6-7----7-7------------------------------------------|

B|--9-6-8-9---8-9-----9|-----9-----9-7--------------------------------|

G|-----------------------------9-6-----9-6-8-6------------------------|

D|--------------------------------------------------------------------|

A|--------------------------------------------------------------------|

E|--------------------------------------------------------------------|

Bm7 Bm6 A F#7 Bm7 Bm6 A

E|----------------7---------------------------------------------------|

B|---------7-9-10---10-------9-7---------7----------------------------|

G|---6-7-9-------------6-9-9----9-6-9-7---7-6---9-6-7-----------------|

D|-9-----------------------------------------9------------------------|

A|--------------------------------------------------------------------|

E|--------------------------------------------------------------------|





A7+ F#7/9

Acho que ouvi numa canção de Madonna

B7 Bm7 E7/9

"When you look at me, I don't know who I am"

C#m7

E desentendi

F#7/9 B7/6

Pois comigo, é você quem me olhando, detona

E7(13-)

A explosão de eu saber

D#7/4/A# G#7/6

Quem eu sou

C#7+ C7 F7 Bbm7

Eu nunca imaginei que nesse mundo alguma vez alguém soubesse quem é

E7 G#7+

Mas se você me vê, seus olhos são mais do que meus

F7/9

Pois amo

Bb7/9

E você ama

Bbm7 Eb7/9 E7/9

Então o indizível se divisa

A7+ D7/9 C#m7 F#7

E a luz de tantos céus inunda a mente

Bm7 Bm6 A F#7 Bm7 Bm6 A

E no entanto, diferentemente de Osama e Condoleezza, eu não acredito em Deus

Letra subida por: Anónimo

Discos en los que aparece este acorde: Zii & Zie

El acorde de Diferentemente de Caetano Veloso es una versión de la canción original realizada por colaboradores/usuarios de Coveralia.

¿Has encontrado algún error en esta página? Envíanos tu corrección del acorde