música
Buscador

Acorde de Did Anyone Approach You - A-Ha

Letra de Did Anyone Approach You

Intro 2x: Cm  Bb  F 



Cm Bb

You never look up

F

You never look back

Cm

You never say anything based on fact

Bb E

You've got issues going way back

Cm Bb

You never say 'hi'

F

You never say much

Cm

You never make an effort to stay in touch

Bb F

I've got this feeling something happened here

Solo:



Cm Bb F Cm Bb F

E|----------------------11-13------------------------------

B|-11-13--11-13--11-13---------11-13--11-13-----------11---

G|-------------------------------------------12-12/14----12

D|---------------------------------------------------------

A|---------------------------------------------------------

E|---------------------------------------------------------





Cm Bb F Cm Bb F

E|----------------------11-13------------------------------

B|-11-13--11-13--11-13---------11-13--11-13-----------11---

G|-------------------------------------------12-12/14----12

D|---------------------------------------------------------

A|---------------------------------------------------------

E|---------------------------------------------------------





Cm Bb

Did anybody feel you?

F

Did anybody deal you?

Eb Bb F

Did anybody make you do some things now?

Cm Bb

Did anyone approach you?

F

Did anybody coach you?

Eb Bb F

Did anybody tell you what to say now?



Cm Bb F Cm Bb F

Hopeless - it's not hopeless

Cm Bb F Cm Bb F Cm Bb F

Doubtful - but not hopeless at all



( Cm Bb F )



Cm Bb

You never looked up

F

You never look back

Cm

You never did anything in between

Bb F

Are things black and white with you

Cm Bb

You never believed

F

http://www.coveralia.com/acordes/did-anyone-approach-you-a-ha.php

You never belonged

Cm

Never made milestones to call your own

Bb F

I've got this feeling something happened here



Cm Bb F Cm Bb F

E|----------------------11-13------------------------------

B|-11-13--11-13--11-13---------11-13--11-13-----------11---

G|-------------------------------------------12-12/14----12

D|---------------------------------------------------------

A|---------------------------------------------------------

E|---------------------------------------------------------





Something happened here



Cm Bb F Cm Bb F

E|----------------------11-13------------------------------

B|-11-13--11-13--11-13---------11-13--11-13-----------11---

G|-------------------------------------------12-12/14----12

D|---------------------------------------------------------

A|---------------------------------------------------------

E|---------------------------------------------------------





Cm Bb

Did anybody hide you?

F

Did anybody fight you?

Eb Bb F

Did anyone decide to do some harm now?

Cm Bb

Did anybody read you?

F

Did anybody bleed you?

Eb Bb F

Did anybody feed you lots of junk now?



Cm Bb F Cm Bb F

Hopeless - it's not hopeless

Cm Bb F Cm Bb F

Doubtful - but not hopeless

Solo 2:



Cm Bb F D Bb F

E|---------------------------------------

B|---------------------------------------

G|---------------------------------------

D|---------------------------------------

A|-5-3----3-3-1----5-5-1-1-----1-1-3-5-3-

E|-----3--------3----------1-1-----------





Cm Bb F Cm Bb F

Hopeless - it's not hopeless

Cm Bb F Cm Bb F

Doubtful - but not hopeless at all

Cm Bb F Cm Bb F

Hopeless - it's not hopeless

Cm Bb F Cm Bb F

Doubtful - but not hopeless at all



Cm Bb F (2x)

Something happened here



Cm Bb F (2x)

Something happened here

Letra subida por: Anónimo

Discos en los que aparece este acorde: How Can I Sleep With Your Voice In My Head (Live)

El acorde de Did Anyone Approach You de A-Ha es una versión de la canción original realizada por colaboradores/usuarios de Coveralia.

¿Has encontrado algún error en esta página? Envíanos tu corrección del acorde