música
Buscador

Acorde de Días - Mikel Erentxun

Letra de Días

G2: 355433

Bm: 224432

Em: 022000

G: 320003

D: 000232

----------



G2



G2 Bm

Días con pedigrí

Em

que echan a volar

C G2

al no dar más de sí

C G

Días de un solo carril

C

alejándose



G2 Bm

Días para pensar

Em C G2

y como dejar de pensar en ti

C G

Días de ser o no ser

C D

de tener o no tener



C G2

Días urgentes

C G

que como vienen se van

C G2 Bm Em

Días que siempre se suelen torcer





G2 Bm Em

Días para pedir o regalar

C G2

en la barra de un bar

C G

Días para olvidar

C

o recordar



G2 Bm

Días para apurar

Em C G2

en la habitación mas fría de un hotel

C G

Días para mentir

C D

viendo amanecer





C G2

Días tranquilos

C G

que no van a más

C G2 Bm Em

http://www.coveralia.com/acordes/dias-mikel-erentxun.php

Días que echan raíces en mí





[solo]

G2 Bm Em C

E-||-----------------------------------12/14\12--------10-12-15---

B-||--------12/13\12------10-12-----------------------------------

G-||------------------------------9-9-----------------------------

D-||----------------12---------------------------10---------------

A-||--10-10-------------------------------------------------------

E-||--------------------------------------------------------------



G2 C G C

E-||---------------------------------------------------------------------

B-||--------12/13\12----12-13-15-13-12---------12/13\12----10----10------

G-||----------------------------------------------------------12----12---

D-||----------------10---------------------------------------------------

A-||--10-10----------------------------10-10-----------------------------

E-||---------------------------------------------------------------------



G2 Bm Em C

E-||-----------------------------------12/14\12--------12-12-10-12/15-15---15\12-12--

B-||--------12/13\12------10/12-12---------------------------------------------------

G-||------------------------------9-9------------------------------------------------

D-||----------------12---------------------------10----------------------------------

A-||--10-10--------------------------------------------------------------------------

E-||---------------------------------------------------------------------------------



G2 C D C

E-||------------------------12\10--10---------------------------------

B-||----------------------------------12-12---------------------------

G-||-------------------------------------------12--12/14---11---12-12-

D-||--9---------------------------------------------------------------

A-||------------------------------------------------------------------

E-||------------------------------------------------------------------





C G2

Días urgentes

C G

que como vienen se van

C G2 Bm Em

Días que siempre se suelen torcer



C G2

Días tranquilos

C G

que no van a más

C G2 Bm Em

Días que echan raíces en mí



C G2

Aaaaaaaaaah

C G

Aaaaaaaaaah

C G2 Bm Em

Aaaaaaaaaah





Letra subida por: Anónimo

Discos en los que aparece este acorde: Ciudades De Paso

El acorde de Días de Mikel Erentxun es una versión de la canción original realizada por colaboradores/usuarios de Coveralia.

¿Has encontrado algún error en esta página? Envíanos tu corrección del acorde