música
Buscador

Acorde de Día A Día - Callejeros

Letra de Día A Día



[RIFF]



4|------2-4-2-0-|

5|-2-3-4--------|



[INTRO] A-C#m-Bm x2



[VERSO]



A E D

Trato de analizar lo que me está pasando

A E D

Hay una sola cosa que siento que es verdad

G F#m E

Y no me puedo acostumbrar

G F#m E

El tiempo me trata de curar [RIFF]



A E D

Pero sigo cantando por eso vivo

A E D

Por ella y por todos los que se me han ido

G F#m E

A veces me trato de escapar

G F#m E

hacia alguna otra realidad [RIFF]



[ESTRIBILLO]



A D A

Aguanto día a día lo que me toca

A D E

acuesto a mi alma en un rincón

A C#m D (Dsus4)

descubro que la vida es otra cosa

A E D

sin ella, mi alegria se escapó



[VERSO]



Volverla a ver, es mucho mas de lo que pido

sus fotos ahora me miran y me ven vacio

quisiera volverla a abrazar

decirle que no me puedo conformar



Pero seguramente me esta mirando

como yo la miraba cuando crecia

canciones le voy a escribir

aliviaran un poco mi vivir



[ESTRIBILLO]



Aguanto día a día lo que me toca

acuesto a mi alma en un rincón

descubro que la vida es otra cosa

sin ella, mi alegria se escapó

http://www.coveralia.com/acordes/dia-a-dia-callejeros.php



[SOLO DE SAXO]



A-C#m-Bm x2

G-F#m-E x2



1|-5~-7-9-7~---------------5~-7-9-7~----------

2|-----------10-9-10~-9-7------------10-9-12~-



1|------7-9-10~-10-9-7-5-7~-5-4-2-0-

2|-9-10-----------------------------



1|-9/10~--9/10-1010-9-12~-|



[ESTRIBILLO]



Aguanto día a día lo que me toca

acuesto a mi alma en un rincón

descubro que la vida es otra cosa

sin ella, mi alegria se escapó



[VERSO]



Tengo tantas cosas para contarte

que no sé por donde voy a empezar

igual decile a tu mamá

que cuando termine me mando para alla



[ESTRIBILLO]



Aguanto día a día lo que me toca

acuesto a mi alma en un rincón

descubro que la vida es otra cosa

sin ella, mi alegria se escapó



A-E-D x2

E-D x2

A



Punteo del final (Escuchen bien la viola d fondo):



2|------------------5-3~-2-3-2--------------------|

3|-----7-6-4-2--2/4------------2~-----2-----2-----|x2

4|-5/7----------------------------2-4---2-4---4-2-|



2|----------------------------55-----7~-|

3|-9999-7-6-444-2-4-2--999(6)----5-7----|



2|-7---7---7---7---7-------------------|

3|--7---7---7---7---7------6h7-6-------|

4|---7---7---7---7---7---7-------7-----|

5|--------------------5--7--------7----|

6|-----------------------5----------5~-|





Letra subida por: Anónimo

Discos en los que aparece este acorde: Señales

El acorde de Día A Día de Callejeros es una versión de la canción original realizada por colaboradores/usuarios de Coveralia.

¿Has encontrado algún error en esta página? Envíanos tu corrección del acorde