música
Buscador

Acorde de Desperation Breeds - Andrew Bird

Letra de Desperation Breeds

 Intro 



In this era without bees...

e|---------------------------------------------------------------------|

B|---------------------------------------------------------------------|

G|-5~------------0-----------------------------------0-----0-----0-----|

D|-7~----------2---2----------(repeat x4)---------2-----2-----2-----2--|

A|-7~----0-2-3-------2---0---------------------------------------------|

E|-5~------------------3---------------------1--1--1--1--1--1--1--1----|



Verse

Na na na na na na na na

e|---------------------------------------------------------------------------|

B|---------------------------------------------------------------------------|

G|----------0-0h2-0-----------0-----0-----0-----0----------------------------|

D|-------2----------2--0--0h2----2-----2-----2-----2-------------------------|

A|---------------------------------------------------------------------------|

E|--3--3--3--3--3--3--3--3--1--1--1--1--1--1--1--1---------------------------|



Na na na na na na na na

e|---------------------------------------------------------------------------|

B|---------------------------------------------------------------------------|

G|----------0-0h2-0-----------0-----0-----0-----0----------------------------|

D|-------2----------2--0--0h2----2-----2-----2-----2-------------------------|

A|---------------------------------------------------------------------------|

E|--3--3--3--3--3--3--3--3--1--1--1--1--1--1--1--1---------------------------|



Beekeeper sing of your frustration

e|---------------------------------------------------------------------------|

B|---------------------------------------------------------------------------|

G|----------0-0h2-0-----------0-----0-----0-----0----------------------------|

D|-------2----------2--0--0h2----2-----2-----2-----2-------------------------|

A|---------------------------------------------------------------------------|

E|--3--3--3--3--3--3--3--3--1--1--1--1--1--1--1--1---------------------------|



In this litigious breeze

e|---------------------------------------------------------------------------|

B|---------------------------------------------------------------------------|

G|----------0-0h2-0-----------0-----0-----0-----0----------------------------|

D|-------2----------2--0--0h2----2-----2-----2-----2-------------------------|

A|---------------------------------------------------------------------------|

E|--3--3--3--3--3--3--3--3--1--1--1--1--1--1--1--1---------------------------|



Of accidental pollination

e|---------------------------------------------------------------------------|

B|---------------------------------------------------------------------------|

G|----------0-0h2-0-----------0-----0-----0-----0----------------------------|

D|-------2----------2--0--0h2----2-----2-----2-----2-------------------------|

A|---------------------------------------------------------------------------|

E|--3--3--3--3--3--3--3--3--1--1--1--1--1--1--1--1---------------------------|



In this era without beeeee...

e|---------------------------------------------------------------------------|

B|----------------------------1--1--1--1--1--1--1----------------------------|

G|----------0-0h2-0----------------------------------------------------------|

D|-------2----------2--0-----------------------------------------------------|

A|---------------------------------------------------------------------------|

E|--3--3--3--3--3--3--3--3--1--1--1--1--1--1--1--1---------------------------|

http://www.coveralia.com/acordes/desperation-breeds-andrew-bird.php



...eeeeees without

e|---------------------------------------------------------------------------|

B|----1--1--1--1--0--0--0--0--1--1--1--1--1--1--1----------------------------|

G|---------------------------------------------------------------------------|

D|---------------------------------------------------------------------------|

A|---------------------------------------------------------------------------|

E|--3--3--3--3--3--3--3--3--1--1--1--1--1--1--1--1---------------------------|



beeeeeeeeeeeeeeeeeees without

e|---------------------------------------------------------------------------|

B|----1--1--1--1--0--0--0--0--1--1--1--1--1--1--1----------------------------|

G|---------------------------------------------------------------------------|

D|---------------------------------------------------------------------------|

A|---------------------------------------------------------------------------|

E|--3--3--3--3--3--3--3--3--1--1--1--1--1--1--1--1---------------------------|



beeeeeeeeeeeeeeees

e|---------------------------------------------------------------------------|

B|----1--1--1--1--0--0--0----------------------------------------------------|

G|---------------------------------------------------------------------------|

D|---------------------------------------------------------------------------|

A|---------------------------------------------------------------------------|

E|--3--3--3--3--3--3--3--3---------------------------------------------------|













G F

Beekeeper sing of your frustration

G F

In this litigious breeze

G F

Of accidental pollination

G F

In this era without bees





G F

We keep breeding desperation

G F

In this era of thieves

G F

Who keep stealing respiration

G F

From the tenderest of trees



G F

This peculiar incantation

G F

Sure you heard it before

G F

Instead of breeding desperation

G F

Make me a pallet on your floor

Letra subida por: Anónimo

Discos en los que aparece este acorde: Break It Yourself (Limited Edition)

El acorde de Desperation Breeds de Andrew Bird es una versión de la canción original realizada por colaboradores/usuarios de Coveralia.

¿Has encontrado algún error en esta página? Envíanos tu corrección del acorde