música
Buscador

Acorde de Descuida Ma, Sólo Son Ratones - Guasones

Letra de Descuida Ma, Sólo Son Ratones





RIFF

e---------------------------------------

b---------------------------------------

g---------------------------------------

d---------------5-7----7-5--------------

a--------3--5-7------------7-5--3-------

e--0-3-5--------------------------5-3-5-



Intro = Riff





A C D RIFF

Son todas ratas miserables Hoy

A C D RIFF

son todas ratas millonarias hoy



D7

Nada les importa hombre o mujer

RIFF

Perro o un gato son viciosas del poder. Tengo un plan



E E D# D

meterlos en una ronda

RIFF

a ver que tal



http://www.coveralia.com/acordes/descuida-ma--solo-son-ratones-guasones.php



A C D RIFF

Son todas ratas que gobiernan hoy

A C D RIFF

Son todas ratas que nos roban hoy





D7

Muestra su sonrisa contra una pared

RIFF

Es el adelanto de que nos van a coger tengo un plan

E E D# D

meterlos en una ronda

RIFF

a ver que tal



SOLO: Ax8 + riff2





riff2



e------------------------------------

b------------------------------------

g--------------7-9---9-7-------------

d--------5-7-9-----------9-7-5-------

a----5-7-----------------------7-5-7-

e--7---------------------------------

Letra subida por: Anónimo

Discos en los que aparece este acorde: Acustico Gran Rex

El acorde de Descuida Ma, Sólo Son Ratones de Guasones es una versión de la canción original realizada por colaboradores/usuarios de Coveralia.

¿Has encontrado algún error en esta página? Envíanos tu corrección del acorde