música
Buscador

Acorde de Departer - Katatonia

Letra de Departer



Em D C

Em D C

Em

Em D C

Em D C

Em





Em

The blinding white

D C Em

So far behind I am

D

And running

C Em

Over idle ground

Em

This evening

D C

I kept my word

Em

Did you

D

I'm turning around

C

Wait for your sound





Em

Only so far

D C

According to who

Em D

Departer

C Em

The journey of our lives

Em

I'm so (when) slow (did)

D C Em

Compared to you (you first say)

D C

Departer (I swear it's the truth)

Em

It's the month of July





Em

Brother

D C

In your eyes I was the stronger

Em D

So how am I to cover you now

http://www.coveralia.com/acordes/departer-katatonia.php

C Em

Without shadowing your path

Em

This time

D C

I watch from the sidelines

Em D

Your ghost in the limelight

C

Face your fears

Em

And pierce the night







Guitar "solo" (play 3times)



e|-----------------------------------------------|

B|-----------------------------------------------|

G|-9-9-9-9-9-9-9----8-8-8-8-8986-6-9-9-9-9-9-9-9-|

D|---------------10------------------------------|

A|-----------------------------------------------|

E|-----------------------------------------------| X3



e|-----------------------------------------------------------------|

B|-----------------------------------------------------------------|

G|-9-9-9-9-9-9-9----8-8-8-8-8986-6-9-9-9-9-9-9-9-------8-----------|

D|---------------10------------------------------------------------|

A|-----------------------------------------------------------------|

E|-----------------------------------------------------------------|







Em

So close

D C

If only you knew

Em D

Defender

C Em

The story of our lives

Em

I'm so (why) rash (would)

D C Em

Compared to you (I swear)

D C

Surrender (You know it's the truth)

Em

It's the path of our lives







Letra subida por: Anónimo

Discos en los que aparece este acorde: Night Is The New Day , Night Is The New Day (Tour Edition)

El acorde de Departer de Katatonia es una versión de la canción original realizada por colaboradores/usuarios de Coveralia.

¿Has encontrado algún error en esta página? Envíanos tu corrección del acorde