música
Buscador

Acorde de Dejar De Ser - La 25

Letra de Dejar De Ser

INTRO:

--------------------------------7-----------------------------
-10-10-10-10-10--7--------10-10--10-7-------------------------
-------------------9-7----------------9-7---7-----------------
-----------------------9------------------9---9-7----5--------
---------------------------------------------------7---5-7-5-7
---------------------------------------------------5------5---

          A5
----------------------d
-7-9-10--9-7-9-10-9-7-a
-5-5-5---5-5-5-5--5-5-e


y sigue...

G5-D5 X4

LA 1º GUITARRA HACE ASI:


     G5        D5
-----------------------
-----------------------
-----------------------
------------7-7-7-7----
-------2-5--5-5-5-5----
---2-5-----------------


Y DURANTE EL CORO: A5




A5
Voy a dejar de ser para compadecer,
                                G5
voy a dejar de ver lo qe qeria ser,
G5                                   A5
mi saco lleno va solo con lo qe me qede,
A5
voy a dejar de ser para pertenecer..


y esa era la historia qe me hara perder,
un tiroteo en la cien y todo qedara al revez,
voy a dejar de ver lo qe qeria ser..
voy a dejar de ser solo por compadecer..


TOCA LA INTRO DE VUELTA



nuevo atardecer qe no se ve como el de ayer,
si en el camino vas pero no sabes donde estas.
vas a limarla mal para qerer pasarla bien,
vas a qerer qerer qe todo empiese como ayer.

esa eraa la historia qe me hara perder,
un tiroteo en la cien y todo qedara al reves,
voy a dejar de ver lo qe qeria ser..
voy a dejar de ser solo por compadecer

TERMINA CON LA 1º PARTE DE LA INTRO



DURANTE A5 Y G5 LA 1º GUITARRA HACE ESTOS RIFF



      A5                      G5
-------------------    ------------------
-------------------    ------------------
--------7--9b------    ------------------
----7-9------------    -------------7b---
--9----------------    -------7-10-------
-------------------    -7-10-------------



Letra subida por: Anónimo

Discos en los que aparece este acorde: Mundo Imperfecto

El acorde de Dejar De Ser de La 25 es una versión de la canción original realizada por colaboradores/usuarios de Coveralia.

¿Has encontrado algún error en esta página? Envíanos tu corrección del acorde