música
Buscador

Acorde de Déjà Vu - Gustavo Cerati

Letra de Déjà Vu

Ritmo, el compás está en 4/4, por cada compás se tocan 8 rasgueos.

El primer rasgueo es hacia abajo (de graves a agudas), el

segundo es hacia arriba (de agudas a graves) y el tercero

de nuevo hacia abajo, luego se toca el acorde muteado* hacia

arriba. Este es el ritmo durante los versos.

Entonces, por compás obtenemos:



|-A-A-A-X-A-A-A-X-|



Para los coros se toca rasgueando hacia abajo en quintillas

(power chord).

*al tocar la nota se levantan ligeramente los dedos que pisan

el acorde, provocando que el acorde suene "mudo"



Nota, los acordes acompañados por un paréntesis tienen un número

romano, que indica el traste en donde se toca el acorde.

Fm(VIII), se refiere a tocar acorde Fm con cejila en traste 8.

El glosario de acordes se encuentra al final.





VERSO 1.

Remate de acordes

Fm(VIII) C#(IX) Fm(VIII) Fsus2(VIII)Fm(VIII)F7sus4(VIII)Fm(VIII)

Veo las cosas como son

Fm(VIII) C#(IX) Fm(VIII) Remate de acordes.

Vamos de fuego en fuego, hipnotizándonos



G#(VIII) Cm(VIII) G#(VIII) Cm(VIII) D#(III)

Y a cada paso sientes otro déjà vu, ¿O no?





VERSO 2.



Fm(VIII) C#(IX) Fm(VIII) Remate de acordes.

Similitudes que soñás

Fm(VIII) C#(IX) Fm(VIII) Remate de acordes.

Lugares que no existen, vuelves a pasar



G#(VIII) Cm(VIII) G#(VIII) Cm(VIII) D#(III)

Errores ópticos del tiempo y de la luz, ¡Oh, no!





CORO.



A#5(VI) C#5(IV)

Tanto pediste retener ese momento de pla...

G#5(IV) D#5(VI)

...cer. Antes de que sea tarde.

A#5(VI) C#5(IV)

Vuelve la misma sensación, esta canción ya escri...

G#5(IV) D#5(VI)

...ibió. Hasta el mínimo detalle.





VERSO 3.



F5 Fm(VIII) Remate de acordes.

Mira el reloj se derritió.

Fm(VIII) C#(IX) Fm(VIII) Remate de acordes.

Rebobinando hacia adelante te alcanzó.



G#(VIII) Cm(VIII) G#(VIII) Cm(VIII) D#(III)

Ecos de antes rebotando en la quietud. ¡Oh, no!





VERSO 4.



Fm(VIII) C#(IX) Fm(VIII) Remate de acordes.

Todo es mentira ya verás

Fm(VIII) C#(IX) Fm(VIII) Remate de acordes.

La poesía es la única verdad.

http://www.coveralia.com/acordes/deja-vu-gustavo-cerati.php



G#(VIII) Cm(VIII) G#(VIII) Cm(VIII) D#(III)

Sacar belleza de este caos es virtud, ¡Oh, no!





CORO.



A#5(VI) C#5(IV)

Tanto pediste retener ese momento de pla...

G#5(IV) D#5(VI)

...cer. Antes de que sea tarde.

A#5(VI) C#5(IV)

Vuelve la misma sensación, esta canción ya escri...

G#5(IV) D#5(VI)

...ibió. Hasta el mínimo detalle.





PUENTE.



[G#5(IV)///B5(VII)///C#5(IX)F#5(II)]x2





FINAL.



Fm(VIII) C#(IX)

Cerca del final

Fm(VIII) C#(IX)

Sólo falta un paso máss

Fm(VIII) C#(IX)

Siento un déjà vu



Sin acordes, sólo riff

(delay)

|-----------------------9--9--|-----------------11-11------||

|---------9--9--11--11--------|-------9-9-11-11------------||

|-10--10----------------------|-10-10----------------------||

|-----------------------------|----------------------------||

|-----------------------------|----------------------------||

|-----------------------------|----------------------------||



¡Déjà vuuuuuuuuuuuuuuuuuuuuuuuuuuuuuuuuuuuuuuu!





GLOSARIO DE ACORDES



Fm(VIII) C#(IX) Fsus2 F7sus4 G#(VIII) Cm(VIII) D#(IV)

e|-8------9-------8-----8------8-------8--------3-----|

B|-9------9-------8-----11-----9-------8--------4-----|

G|-10-----10------10----8------8-------8--------3-----|

D|-10-----11------10----10-----10------10-------5-----|

A|-8------11------8-----8------11------10-------6-----|

E|--------9----------------------------8--------------|



A#5(VI) C#5(IV) G#5(IV) D#5(VI) F5 B5(VII) C#5(IX)

e|----------------------------------------------------|

B|----------------------------------------------------|

G|--------6---------------8---------------------------|

D|-8------6-------6-------8-------3---9-------11------|

A|-8------4-------6-------6-------3---9-------11------|

E|-6--------------4---------------1---7-------9-------|



F#5(II)

e|--------

B|--------

G|--------

D|-4------

A|-4------

E|-2------



Discos en los que aparece este acorde: Fuerza Natural , Infinito

El acorde de Déjà Vu de Gustavo Cerati es una versión de la canción original realizada por colaboradores/usuarios de Coveralia.

¿Has encontrado algún error en esta página? Envíanos tu corrección del acorde