música
Buscador

Acorde de Dead Boy's Poem - Nightwish

Letra de Dead Boy's Poem

Born from silence, silence full of it 

Dm F G

A perfect concert my best friend

Am Dm G F

So much to live for, so much to die for

Bb Dm

If only my heart had a home



Am Dm

Sing what you can`t say

G F

Forget what you can`t play

Am Dm F G

Hasten to drown into beautiful eyes

Am Dm G F

Walk within my poetry, this dying music

Bb Dm

- My loveletter to nobody



A# A# A# A# A#



G F C A# A

Never sigh for better world

G D# A#

It`s already composed, played and told

G F C D

Every thought the music I write

D# A# F

Everything a wish for the night



Am Dm G F

Wrote for the eclipse, wrote for the virgin

Am Dm F G

Died for the beauty the one in the garden

Am Dm G F

Created a kingdom, reached for the wisdom

Bb Dm

Failed in becoming a god



A# A# A# A# A#



G F C A# A

Never sigh for better world

G D# A#

It`s already composed, played and told

G F C D

Every thought the music I write

D# A# F

Everything a wish for the night

http://www.coveralia.com/acordes/dead-boy-s-poem-nightwish.php





"If you read this line, remember not the hand that wrote it

Remember only the verse, songmaker`s cry, the one without tears

For I`ve given this its strength and it has become my only strength.

Comforting home, mother`s lap, chance for immortality

Where being wanted became a thrill I never knew

The sweet piano writing down my life"



SOLO



e|------------------------------------------------------|

B|-11-10----10--11-10--8-------11-10-----8-------------|

G|-------10---------------------------10-----10-8-7-----|

D|------------------------------------------------------|

A|------------------------------------------------------|

E|------------------------------------------------------|



e|------------------------------------------------------|

B|-11-10----10--11-10--8--8~----8-10-11-----------------|

G|-------10-----------------------------10--8-7-5------|

D|------------------------------------------------------|

A|------------------------------------------------------|

E|------------------------------------------------------|



"Teach me passion for I fear it`s gone

Show me love, hold the lorn

So much more I wanted to give to the ones who love me

I`m sorry

Time will tell (this bitter farewell)

I live no more to shame nor me nor you

And you... I wish I didn`t feel for you anymore..."



G G G G C F D# F G





G F G F D# D D# C G F G F D# D D# C

A lonely soul... An ocean soul...

G F G F D# D D# C G F G F D# D D# C

A lonely soul... An ocean soul...



E C B E C B



E C A E C A

A lonely soul... An ocean soul...

E C A E C A E

A lonely soul... An ocean soul...

Letra subida por: Anónimo

El acorde de Dead Boy's Poem de Nightwish es una versión de la canción original realizada por colaboradores/usuarios de Coveralia.

¿Has encontrado algún error en esta página? Envíanos tu corrección del acorde