música
Buscador

Acorde de Daydream Away - All Time Low

Letra de Daydream Away

Intro: D5, B5, G5, A5, D5 



e|--------------------------||

B|--------------------------||

G|-11------9-------7--------||

D|--0------0-------0--------||

A|--------------------------||

E|--------------------------||







D5 B5 A5

I wish you could see your face right now

D5 B5 A5

'Cause you're grinning like a fool

D5 B5 A5

And we're sitting on your kitchen floor

E5 A5

On a Tuesday afternoon



D5 B5 A5

Doesn't matter when we get back

D5 B5 A5

To doing what we do

G5 B5 A5

'Cause right now could last forever

E5 A5

Just as long as I'm with you





D5 B5

You're just a daydream away

G5 A5 D5

I wouldn't know what to say if I had you

D5 B5

And I'll keep you a daydream away

G5

Just watch from a safe place

A5 D5

So I never have to lose





Verse 2:



D5 B5 A5

We would go out on the weekend

D5 B5 A5

To escape our busy lives

D5 B5 A5

And we'd laugh at all the douche-bag guys

E5 A5

Chasing down their desperate wives





D5 B5 A5

I would drink a little too much

D5 B5 A5

And you'd offer me a ride

http://www.coveralia.com/acordes/daydream-away-all-time-low.php

G5 B5 A5

I would offer you a t-shirt

E5 A5

And you would stay another night





D5 B5

You're just a daydream away

G5 A5 D5

I wouldn't know what to say if I had you

D5 B5

And I'll keep you a daydream away

G5

Just watch from a safe place

A5 D5

So I never have to lose



Bridge Solo:



D5, B5, G5, A5, D5 (2x)



e|------------------------------------------------------------------------|

B|-7-7-5-5-7-7-8-8-7-7-5-5--------7-7-5-5-7-7-8-8-7-7-5-5---------7~------|

G|--7-7-7-7-7-7-7-7-7-7-7-7-7-7----7-7-7-7-7-7-7-7-7-7-7-7-7-7-7----------|

D|-------------------------7-7----------------------------7-7-7-7---------|

A|------------------------------------------------------------------------|

E|------------------------------------------------------------------------|







Bridge 2:



D5 B5 A5

We never stood a chance out there

D5 B5 A5

Shooting love in real-time

D5 B5 A5

So we'll take it over ice tonight

E5

With a little salt

A5

And a little lime





D5 B5

You're just a daydream away

G5 A5 D5

I wouldn't know what to say if I had you

D5 B5

And I'll keep you a daydream away

G5

Just watch from a safe place

A5 D5

So I never have to lose





repeat intro.

Letra subida por: Anónimo

Discos en los que aparece este acorde: Dirty Work (Deluxe Edition)

El acorde de Daydream Away de All Time Low es una versión de la canción original realizada por colaboradores/usuarios de Coveralia.

¿Has encontrado algún error en esta página? Envíanos tu corrección del acorde