música
Buscador

Acorde de Danse Carribe - Andrew Bird

Letra de Danse Carribe

 Intro 

e|------------------------------------2-----2----------------------------|

B|---0------------0------1-----1--------3-----3--------------------------|

G|-----0---0--------0------0-----0---------------------------------------|

D|-----------0--0-------------------0-----0------------------------------|

A|-------------2-------3-----3-------------------------------------------|

E|-3-----3---------------------------------------------------------------|







Walk-up (going from G to C)

e|-----------|

B|-----------|

G|-----------|

D|-----------|

A|---0-2-3---|

E|-3---------|





Verse 1:



G C

You were a shameless child

D G

Bandied by stiff cross currents



G C D G



G C

Anything but "my", "yes", and "no"

D G G

Just simply weren't invented yet

C D G

Oh yes, oh no

G C

Then one day you'd had it

D G

Exiled your close advisers



G C D G



G C

Ousted your dog, your rabbits

D G

You're through with pasifizers

C D G

You're through with pasifizers now

C D

http://www.coveralia.com/acordes/danse-carribe-andrew-bird.php

You're through with pasifizers



Chorus (play single chords without walk-ups)

G C D

Here we go mistaking clouds for mountains, oh

G C D

Here's the thing that brings the sparrows to the fountains, oh

G C D

Here's the thing that makes you run for the highlands, oh

G

Here we go mistaking clouds for mountains

C D

Autonomy



(Whistling/violin solo)

G C D G



Verse 2 (played without walk-ups)



G C

Then one day you'd had it

D G G C D G

Exiled your close advisors

G C

Ousted your dog, your rabbits

D G

You're through with pasifizers

C D G

You're through with pasifizers now

C D G

You're through with pasifizers now

C D

You're through with pasifizers





Chorus (play single chords without walk-ups)

G C D

Here we go mistaking clouds for mountains, oh

G C D

Here's the thing that brings the sparrows to the fountains, oh

G C D

Here's the thing that makes you run for the highlands, oh

G

Here we go mistaking clouds for mountains

C D

Autonomy

Letra subida por: Anónimo

Discos en los que aparece este acorde: Break It Yourself (Limited Edition)

El acorde de Danse Carribe de Andrew Bird es una versión de la canción original realizada por colaboradores/usuarios de Coveralia.

¿Has encontrado algún error en esta página? Envíanos tu corrección del acorde