música
Buscador

Acorde de Dancefloors - My Morning Jacket

Letra de Dancefloors

 intro:  

e------8-8----8-----------8-8----8------

B-—9b------9b---9b~---—9b-----9b---9b~--

G-------------------10------------------

D---------------------------------------

A---------------------------------------

E---------------------------------------



e------8-8----8-------------------------

B-—9b------9b---9b~---—9h11p9--7—-5--7--

G-------------------10------------------

D---------------------------------------

A---------------------------------------

E---------------------------------------



e----------------------------------

B----------------------------------

G----------7-----------------------

D------7h9-------7h9--5----2--0----

A----------------------------------

E----------------------------------



e-----------------------------------------------

B--------------------------7--8-8-7-------------

G-----0—2s4---2--0-----0---7--7-7-7---9b—9b--7--

D--2----------------2------7--------------------

A-----------------------------------------------

E-----------------------------------------------



G Bm C G

Daybreak. nightfall. long as I believe

C G

There ain't nothing glowin like this skin you're showin

Am D

http://www.coveralia.com/acordes/dancefloors-my-morning-jacket.php

And the keys you gave to me



G Bm C G

Nightjails. poolhalls. some things are everywhere

C G

So for the past I'm diggin a grave so big,

Am D

It will swallow up the sea



Am D G Em

Oh I know... that it's easy...

Am D G

There's no trouble waitin for me



G Bm C G

Dancefloors. headlights. in my blood there's gasoline

C G

For an urban boy on a dirty tour

Am D

I never felt so clean



G Bm C G

Loaded questions in an automatic world

C G

You just won't be seein the things you need,

Am D

As if you thought you would



Am D G Em

Oh I know... it's never easy...

Am D G

There's no trouble waitin for me

Letra subida por: Anónimo

El acorde de Dancefloors de My Morning Jacket es una versión de la canción original realizada por colaboradores/usuarios de Coveralia.

¿Has encontrado algún error en esta página? Envíanos tu corrección del acorde