música
Buscador

Acorde de Cuidarte El Alma - Chayanne

Letra de Cuidarte El Alma

Punteo Inicial: 

1-------5--5-5+6-6-6+5---------8-8+10--8-------------------

2--5-6-8--6-----------8-6-6+8--------11-10-11-8-10--8+10-8-

3-7------7-------------------7.-------------------10-------

4----------------------------------------------------------



1-----------12-13-13.-12+13+12--12.-10--------------

2------13-15------------------15----10--------------

3-----------------------------------10--------------

4-12-12---------------------------------------------



Dm Gm C6 F Bb Gm F6

Solo si pudiera estar contigo,Tu dormida entre mis brazos.Y mirarte en el

C (Yeite1)Dm Gm C6 C#dim Dm

silencio. Solo si pudiera dibujarte una escena de mis sueños,Donde

Gm F6 C6 F6 Gm6 F

siempre estas presente.

F Bb C (Yeite 2)F Bb C

Con solo tenerte aqui. Decirte lo que yo siento.

CORO:C Dm Gm C6

Es que me gusta tu cara,me gusta tu pelo,soñar con tu voz cuando

F Bb Gm

dices'Te Quiero'.Me gusta abrazarte,perderme en tu aroma,Poder

Bb A Dm Gm

encontrar en tus ojos el cielo.Me gusta tu risa,me gusta tu boca

C6 F Bb

Me gusta creer que por mi,tu estas loca.Como quiero que sientas,

Gm Bb A Dm PUNTEO 1

Conmigo,la calma,Y cuando llegue la noche.Cuidarte el Alma.

Dm Gm C6 F Bb Gm F6

Como despertar en la distancia sin tu piel junto a la mia.Amando tu

C Dm Gm C6 C#dim

http://www.coveralia.com/acordes/cuidarte-el-alma-chayanne.php

fotografia.Podemos mandar besos con el viento,mirar la luna al mismo

Dm Gm F6 C6 F6 Gm6 F

tiempo.Contar un dia mas.

F Bb C(Yeite 2)F Bb C

Con solo tenerte aqui. No sabes lo que me faltas.(CORO+PUNTEO 2)

F Bb F

Y a pesar de todo y sin darnos cuenta,estare en tu puerta,

Gm A

Diciendote otra vez.(CORO,pero subido un semitono= D#m G#m C#6 F#)



Yeite 1 I I Yeite 2

1-----------------------I-I 1-------------5--

2-5-6-8-8-6-5-5+6+5-----I-I 2--5-6-8.6-8--6--

3------------------7----I-I 3-7-----------5--

4-----------------------I-I 4-------------7--

5-----------------------I-I 5-------------8--



PUNTEO 1:

1-5-5-5/6.-----------6+5-5.5-5-6-8-8-6-6-5----------------------------

2-----------5-6+5-5-6-8---8---------------8.-5-6-6-5-5----------------

3--7-----5-7-----7--------------------------7---------7-7-5-5---------

4------------------------------------------------------------5.5+7+5--

5-------------------------------------------------------------------8-

6---------------------------------------------------------------------



PUNTEO 2:

1-5----5-6-8-5----10-8-6-5-5----5-6-8---

2--6-8--------8-6-----------8-8.--------

3---------------------------------------



Letra subida por: Anónimo

Discos en los que aparece este acorde: Sincero , Desde Siempre , Cuidarte El Alma (Cd Single) , Personalidad

El acorde de Cuidarte El Alma de Chayanne es una versión de la canción original realizada por colaboradores/usuarios de Coveralia.

¿Has encontrado algún error en esta página? Envíanos tu corrección del acorde