música
Buscador

Acorde de Cualkier Error - Segismundo Toxicomano

Letra de Cualkier Error



|------| |------|

|------| |------|

F8 |--10--| G8 |--12--|

|--10--| |--12--|

|--8---| |--10--|

|------| |------|





Riff1

|---------------------------------|

|---------------------------------|

|-0-3-2/3-3-2-3-0-3-2-3-5-7-5-----|

|---------------------------------|

|---------------------------------|

|---------------------------------|







Intro: G A# F A# A A# G A# F D# F8 (el ritmo se hace con PM)





G D#

Cualkier error

F A# A A#

Puede condenar tu vida

G D#

A rodar por aceras

F (pm)

Distancias vacías



D# F8 G

UN ERROR



G D#

Ser portador

F A# A A#

De tabúes infectados

G D#

Se vuelve agonía

F (pm)

Animal perseguido





D# F8





G D# F A# A

EH! EH!



G D# A# A A#



G D# F A# A

http://www.coveralia.com/acordes/cualkier-error-segismundo-toxicomano.php

EH! EH!



G D# F8



---RIFF 1---

G D#

Un corazón

F A# A A#

Se seca cuando no hay amigos

G D#

Dibujas sonrisas

F (pm)

En caras vacías



G D#

Cualkier error

F A# A A#

Puede condenar tu vida

G D#

A rodar por aceras

F (pm)

Se vuelve agonia

---FIN RIFF1---



D# F8 G8



G D#

Me roba la vida

F A# A A#

Un poco cada dia

G D# F D# F8

Me esta comiendo las entrañas





Un error!



|------------------------------------------|

|------------------------------------------|

|----12--10--------12-10----------12-10----|

|-----------12-----------12-------------12-|

|-10------------10-----------10------------|

|------------------------------------------|



|---------------------------------------------------|

|---------------------------------------------------|

|--------------------12-10--------------------------|

|--------------------------12------------10-12-10-12|

|-13-13-13-12-13-10------------13-12-13-------------|

|---------------------------------------------------|







Letra subida por: Anónimo

Discos en los que aparece este acorde: Escapa! , Balance De Daños

El acorde de Cualkier Error de Segismundo Toxicomano es una versión de la canción original realizada por colaboradores/usuarios de Coveralia.

¿Has encontrado algún error en esta página? Envíanos tu corrección del acorde