música
Buscador

Acorde de Cry - Kelly Clarkson

Letra de Cry



Chords used:



Bb5* F5* Eb5 Bb5 F5 G5 F#5 C5 D5

E||-------------------------------------------------------------------|

B||-------------------------------------------------------------------|

G||------------10-----8------3---------------------------5------7-----|

D||-----8------10-----8------3------3------5------4------5------7-----|

A||-----8-----(8)----(6)----(1)-----3------5------4-----(3)----(5)----|

E||----(6)-------------------------(1)----(3)----(2)------------------|





Intro Bb5* F5* Eb5



Verse:

Bb5*

If anyone asks

F5* Eb5

I'll tell them we both just moved on

Bb5*

When people all stare

F5* Eb5

I'll pretend that I don't hear them talk



Bb5 F5

Whenever I see you

G5 F#5

I'll swallow my pride and bite my tongue

C5 Eb5 C5

Pretend I'm okay with it all

Eb5 F5

Act like there's nothing wrong





Chorus:

Bb5 Eb5

Is it over yet

G5 Eb5 F5

Can I open my eyes

Bb5 Eb5

Is this as hard as it gets

G5 Eb5 F5

Is this what it feels like to really

G5 Eb5

Cry

G5 F#5

Cry



http://www.coveralia.com/acordes/cry-kelly-clarkson.php



Verse 2(same as verse 1)

If anyone asks

I'll tell them we just grew apart

Yet what do I care if they believe me or not

Whenever I feel your memory is breaking my heart

I'll pretend I'm okay with it all

Act like there's nothing wrong





Chorus





Bridge:

C5

I'm talking in circles

D5

I'm lying



They know it

Eb5 F5*

Why won't this just all go away





Last chorus:

is it over yet can I open my eyes

Bb5 Eb5 G5 Eb5

E||----------------------------------------------------x-------|

B||--------1---------------6----------------3----------x-------|

G||------3---3-----------8---8-----------------3-------8-------|

D||----3-------3-------8-------8----------5------5-----8-------|

A||--1---------------6------------------5--------------6-------|

E||-----------------------------------3----------------x-------|



F5 Bb5 Eb5

Is this as hard as it gets

G5 Eb5 F5

Is this what it feels like to really

G5 Eb5

Cry

G5 F#5

Cry

G5 F#5

Cry







Letra subida por: Anónimo

El acorde de Cry de Kelly Clarkson es una versión de la canción original realizada por colaboradores/usuarios de Coveralia.

¿Has encontrado algún error en esta página? Envíanos tu corrección del acorde